Strung Out

Mind Of My Own

Strung Out

tabs

by  PAULANTUNES

save to print version add songbook text version e-mail correct tuner
chordsukulelecavacokeyboardtabbassdrumsharmonicaflute Guitar Pro
close

there isn't a video lesson for this song

chords

Mind Of My Own

	  		

Intro Riff (0:00)  

Rob:  
                                                                           (1x) 
d|-----------------------------------------------------------------------------| 
A|-----------------------------------------------------------------------------| 
F|-----------------------------------------------------------------------------| 
C|--55-444---44-222---55-444---7777/9999--55-444---444-22222-------------------| 
G|--22-222---55-000---22-222---5555/7777--22-222---555-00000---555555---777777-| 
D|-------------------------------------------------------------333333---555555-| 

Jake (0:09): 

D|--------------------| 
A|--------------------| 
F|--------------------| *bass & drums also kick in* 
C|--------------------| 
G|----555555---777777-| 
D|----333333---555555-| 

Jake & Rob (0:13): 
                                                                             
d|-----------------------------------------------------------------------------| 
A|-----------------------------------------------------------------------------| 
F|-----------------------------------------------------------------------------| 
C|--55-444---44-222---55-444---7777/9999--55-444---444-22222-------------------| 
G|--22-222---55-000---22-222---5555/7777--22-222---555-00000---555555---777777-| 
D|-------------------------------------------------------------333333---555555-| 

Verse Riff (0:25) 

Jake & Rob: 
                                                                            (2x) 
d|-----------------------------------------------------------------------------| 
A|-----------------------------------------------------------------------------| 
F|-----------------------------------------------------------------------------| 
C|--55-444---44-222---55-444---7777/9999--55-444---444-22222-------------------| 
G|--22-222---55-000---22-222---5555/7777--22-222---555-00000---555555---777777-| 
D|-------------------------------------------------------------333333---555555-| 

Chorus Riff (0:37) 
         
Jake & Rob: 

d|---------------------------------------------------------------| 
A|---------------------------------------------------------------| 
F|---------------------------------------------------------------| 
C|--5x44x44x22---------------------------4----77-----------------| 
G|--2x22x55x00--4-4-4-4-4-5-5-5-7-7-7-7--2-44-55-22-22-55555-4R--| 
D|--------------2-2-2-2-2-3-3-3-5-5-5-5----22----00-00-33333-2R--| 

Intro/Verse Repeated (0:50) 
         
-When vocals start the riff is palm muted- 

Bridge Riff (1:14) 
         
Jake & Rob: 
                                                                 
d|------------------------------------------------------------------------| 
A|------------------------------------------------------------------------| 
F|------------------------------------------------------------------------| 
C|----1212------99----77---------------1212----9999-1212121212-1111111111-| 
G|-99-1010-1212-77-55-55-77-99-99---99-1010-99-7777-1010101010--9-9-9-9-9-| 
D|-77------1010----33----55-77-77---77------77----------------------------| 

d|------------------------------------------------------------------------------------| 
A|------------------------------------------------------------------------------------| 
F|------------------------------------------------------------------------------------| 
C|---------1212121212121212--------------------------1212121212121212-----------------| 
G|-9999999910101010101010109999999955557777--9999999910101010101010107777777744444444-| 
D|-77777777----------------7777777733335555--77777777----------------5555555522222222-| 

Jake's Solo (1:39) 
         
d|---------------------------------------------------------------| 
A|-------7------------------------------------------------7------| 
F|-----7---7------7h9-9-9-777-66--6--6--666-7776--------7---7----| 
C|-7/9------9-9-9---------------77-77-7-444-5555----7/9------999-| 
G|---------------------------------------------------------------| 
D|---------------------------------------------------------------| 

d|----------------------------------------------| 
A|-101010 888-66-55555555-88810101088-77778887--| 
F|-111111-999-77-66666666-999 9 9 999-66666666--| 
C|----------------------------------------------| 
G|----------------------------------------------| 
D|----------------------------------------------| 

Verse #2 (1:53) 

Rob: 

d|---------| 
A|---------| 
F|---------| 
C|-55-444--| 
G|-22-222--| 
D|---------| 

Jake & Rob (1:55): 
                                                                       (2x) 
d|-------------------------------------------------------------------------| 
A|-------------------------------------------------------------------------| 
F|-------------------------------------------------------------------------| 
C|-55-444--44-222---55-444-----------------55-444--44-222------------------| 
G|-22-222--55-000---22-222--555555-777777--22-222--55-000--5555555-4444444-| 
D|--------------------------333333-555555------------------3333333-2222222-| 

Outro/Chorus (2:19) 

Jake & Rob: 

d|-------------------------------------------------| 
A|-------------------------------------------------| 
F|-------------------------------------------------| 
C|--5x44x44x22-5x44-7x999-5x44x44------------------| 
G|--2x22x55x00-2x22-5x777-2x22x55-22-22-55555-4R---| 
D|--------------------------------00-00-33333-2R---| 
		  

See also:

tabs Fall Out Boy - Sugar, We're Going Down tabs Green Day - Basket Case (ver. 2) tabs Blink 182 - Not Now tabs Blink 182 - Stay Together For the Kids tabs Green Day - Wake Me Up When September Ends tabs Blink 182 - Stay Together 4 the Kids
e-chords

Other versions:

tabs Strung Out - Mind Of My Own
auto scroll beats size up size down change color hide chords drawings
tab show chords e-chords YouTube Clip e-chords hide all tabs e-chords go to top tab

share