Street Pharmacy

home > Street Pharmacy

Home Tab

Street Pharmacy

Difficulty: nolevelnolevel

by ubirbomfim

tuner correct add songbook print version text version save to e-mail
chordsukulelecavacokeyboardtabbassdrumsharmonicsflute Guitar Pro
chords

Home

  		Tab by Tyler Dean Peterson 
Home 
By Walk off the Earth ft. Street Pharmacy 

Intro/verse 1 x3: 
e|-----------------------------------------------------------------| 
B|-----------------------------------------------------------------| 
G|-----5-------------------------------------------------------0---| 
D|---7---------7-------7---------------3---------------3-----2-----| 
A|-5-----------------8---------8-----3---------3-----3-----3-------| 
E|-----------------6---------------1---------------1---------------| 
                        
B|-----------------------------------------------------------------| 
G|-----5-----------------------------------------------------------| 
D|---7---------7-------7---------------3---------------3---3-------| 
A|-5-----------------8---------8-----3---------3-----3-------3-----| 
E|-----------------6---------------1---------------1-----------1---| 

Bridge: 
e|-0---------------------------------------------------------------| 
B|-1-------------------------------------------------------5-------| 
G|-2---------------3-------------------------------5-------6-------| 
D|-2---------------3---------------3---------------5-------7-------| 
A|-0---------------1---------------3---------------3-------4-------| 
E|-0-------------------------------1-------------------------------| 

e|-----------------------------------------------------------------| 
B|-----------------------------------------------------------------| 
G|-7---------------------------------------------------------------| 
D|-7---------------8---------------3-------------------------------| 
A|-5---------------8---------------3-------------------------------| 
E|-----------------6---------------1-------------------------------| 

Intro/verse 1 x1 

verse 2 x2: 
e|-----------------------------------------------------------------| 
B|-----------------------------------------------------------------| 
G|-----5---5------------------------------------------10------9----| 
D|---7-------7---7-----7---7-----------3---3--------10------10-----| 
A|-5-----------5-----8-------8---8---3-------3---3-8----8-10---10--| 
E|-----------------6-----------6---1-----------1-------------------| 

e|-----------------------------------------------------------------| 
B|-----------------------------------------------------------------| 
G|-----5---5---------------------------------------------------10--| 
D|---7-------7---7-----7---7-----------3---3-----------3-----10----| 
A|-5-----------5-----8-------8---8---3-------3---3---3-----8-------| 
E|-----------------6-----------6---1-----------1---1---------------| 

Bridge 2: 
e|-0---------------------------------------------------------------| 
B|-1-------------------------------------------------------5-------| 
G|-2---------------3-------------------------------5-------6-------| 
D|-2---------------3---------------3---------------5-------7-------| 
A|-0---------------1---------------3---------------3-------4-------| 
E|-0-------------------------------1-------------------------------| 

e|-----------------------------------------------------------------| 
B|-----------------------------------------------------------------| 
G|-7---------------------------------------------------------------| 
D|-7---------------8---------------3---------------3-3-3-3-3-3-3-3-| 
A|-5---------------8---------------3---------------3-3-3-3-3-3-3-3-| 
E|-----------------6---------------1---------------1-1-1-1-1-1-1-1-| 
                                                pm . . . . . . . . . 
e|-0-0-0-0-0-0-0-0-------------------------------------------------| 
B|-1-1-1-1-1-1-1-1-----------------------------------------5-5-5-5-| 
G|-2-2-2-2-2-2-2-2-3-3-3-3-3-3-3-3-----------------5-5-5-5-6-6-6-6-| 
D|-2-2-2-2-2-2-2-2-3-3-3-3-3-3-3-3-3-3-3-3-3-3-3-3-5-5-5-5-7-7-7-7-| 
A|-0-0-0-0-0-0-0-0-1-1-1-1-1-1-1-1-3-3-3-3-3-3-3-3-3-3-3-3-4-4-4-4-| 
E|-0-0-0-0-0-0-0-0-----------------1-1-1-1-1-1-1-1-----------------| 
pm. . . . . . . . . . . . . . . . . . . . . . . . . . . . . . . . . 
e|-----------------------------------------------------------------| 
B|-----------------------------------------------------------------| 
G|-7-7-7-7-7-7-7-7-------------------------------------------------| 
D|-7-7-7-7-7-7-7-7-8-8-8-8-8-8-8-8-3-3-3-3-3-3-3-3-3-3-3-3-3-3-3-3-| 
A|-5-5-5-5-5-5-5-5-8-8-8-8-8-8-8-8-3-3-3-3-3-3-3-3-3-3-3-3-3-3-3-3-| 
E|-----------------6-6-6-6-6-6-6-6-1-1-1-1-1-1-1-1-1-1-1-1-1-1-1-1-| 
  . . . . . . . . . . . . . . . . . . . . . . . . . . . . . . . . . 
Chorus 1 x2: 
e|-----------------------------------------------------------------| 
B|-1-------------------------------2-------------------------------| 
G|-0-------------------------------3-------------------------------| 
D|-2-------------------------------3-------------------------------| 
A|-3-------------------------------1-------------------------------| 
E|-----------------------------------------------------------------| 

e|-----------------------------------------------------------------| 
B|-----------------------------------------------------------------| 
G|-2-------2-----2---2-2-----3---3-3-2-----2-----2---2-2---2-------| 
D|-3-------3-----3---3-3-----3---3-3-3-----3-----3---3-3---3---0-0-| 
A|-3-------3-----3---3-3-----3---3-3-3-----3-----3---3-3---3---0-0-| 
E|-1-------1-----1---1-1-----1---1-1-1-----1-----1---1-1---1---0-0-| 
(constant strumming, accent strums are written) . . . . . . . . . . 

Chorus 2 x3: 
e|-----------------------------------------------------------------| 
B|-1-------1-----1---1-1---1-1-----2-------2-----2---2-2---2-2-----| 
G|-0-------0-----0---0-0---0-0-x-x-3-------3-----3---3-3---3-3-x-x-| 
D|-2-------2-----2---2-2---2-2-x-x-3-------3-----3---3-3---3-3-x-x-| 
A|-3-------3-----3---3-3---3-3-x-x-1-------1-----1---1-1---1-1-x-x-| 
E|-----------------------------------------------------------------| 
  . . . . . . . . . . . . . . . . . . . . . . . . . . . . . . . . . 

e|-----------------------------------------------------------------| 
B|-----------------------------------------------------------------| 
G|-2-------2-----2---2-2-----3-3-3-3-2-----2-----2---2-2---2-------| 
D|-3-------3-----3---3-3-----3-3-3-3-3-----3-----3---3-3---3---0-0-| 
A|-3-------3-----3---3-3-----3-3-3-3-3-----3-----3---3-3---3---0-0-| 
E|-1-------1-----1---1-1-----1-1-1-1-1-----1-----1---1-1---1---0-0-| 
  . . . . . . . . . . . . . . . . . . . . . . . . . . . . . . . . . 

e|-----------------------------------------------------------------| 
B|-1-------------------------------2-------------------------------| 
G|-0-------------------------------3-------------------------------| 
D|-2-------------------------------3-------------------------------| 
A|-3-------------------------------1-------------------------------| 
E|-----------------------------------------------------------------| 

e|-----------------------------------------------------------------| 
B|-----------------------------------------------------------------| 
G|-2---------------------------------------------------------------| 
D|-3---------------------------------------------------------------| 
A|-3---------------------------------------------------------------| 
E|-1---------------------------------------------------------------| 
	  

Search Paypal
auto scroll beats size up size down change color hide chords drawings
tab show chords e-chords YouTube Clip e-chords hide all tabs e-chords go to top tab