Street Bulldogs

Sweet Threat

Street Bulldogs

tabs

save to print version add songbook text version e-mail correct tuner
chordsukulelecavacokeyboardtabbassdrumsharmonicaflute Guitar Pro
close

there isn't a video lesson for this song

chords

Sweet Threat

	  		 
Guitarra 1 
e|--------------------------------------------| 
B|--------------------------------------------| 
G|--------------------------------------------| 
D|-----6688--------6-------668899886688-------| 
A|-6699--------6699----6699-------------------| 
E|-------------------9------------------------| (4x) 
 
Guitarra 2  
e|--------------------------------------------| 
B|--------------------------------------------| 
G|-8---4---8---6------------------------------| 
D|-8---4---8---6------------------------------| 
A|-6---2---6---4------------------------------| 
E|--------------------------------------------|(4x) 
    
Guitarra 1 			(Abafado) 
e|--------------------------------------------| 
B|--------------------------------------------| 
G|--------------------------------------------| 
D|--------------------------------------------| 
A|-666666666666------89-----------------------| 
E|--------------------------------------------|(2x) 
 
Guitarra 2  
e|--------------------------------------------| 
B|--------------------------------------------| 
G|--88----------------------------------------| 
D|--88--44---66---99--------------------------| 
A|--66--44---66---99--------------------------| 
E|------22---44---77--------------------------|(2x) 
 
Guitarra 1  
e|--------------------------------------------| 
B|--------------------------------------------| 
G|--------------------------------------------| 
D|--6p8888-6p8888-6p8888--986-----------------| 
A|--------------------------------------------| 
E|--------------------------------------------| 
 
Guitarra 2  
e|--------------------------------------------| 
B|--------------------------------------------| 
G|--------------------------------------------| 
D|--------------------------------------8-----| 
A|---------------8-------------------89-------| 
E|---11-11-11-11---11--9-11-11-11-11----------|(2x) 
 
As 2 guitarras ao mesmo tempo  
e|--------------------------------------------| 
B|--------------------------------------------| 
G|-------6--8---------6---4-4-4-4-------------| 
D|----4--6--8-----4---6---4-4-4-4-------------| 
A|----4--4--6-----4---4---2-2-2-2-------------| 
E|----2-----------2---------------------------|(2x) 
 
Intro de novo.....agora nessa segunda parte a unica coisa que muda é a 2ªGuitarra 
 
Guitarra 2  
e|-----------------------------------------------------| 
B|-----------------------------------------------------| 
G|-----------------------------------------------------| 
D|------------------8----------------------------------| 
A|------8--------89-------8---------89--11-98-11-98----| 
E|---11---11-9-11------11---11-9-11--------------------|(2x) 
 
Volta nas 2 guitarras ao mesmo tempo... 
 
Guitarra 2  
e|--------------------------------------------| 
B|--------------------------------------------| 
G|--------------------------------------------| 
D|--------------------------------------------| 
A|-666--888-999-888-666-444-666-888-----------| 
E|--------------------------------------------| 
 
Guitarra 2 continuação da de cima 
e|--------------------------------------------| 
B|--------------------------------------------| 
G|--------------------------------------------| 
D|--------------------------------------------| 
A|-11-11-11-11-9999-11-11-11-11-989-----------| 
E|--------------------------------------------|(este repete 2x) 
 
Guitarra 1  ( SOLO ) 
e|------------------------------------976p7--4---2212--666--4--------------| 
B|--7--7---7--9p11-11-11-9-7676-4-2---------------------------667---2------| 
G|---6---6-----------------------------------------------------------------| 
D|-------------------------------------------------------------------------| 
A|-------------------------------------------------------------------------| 
E|-------------------------------------------------------------------------| 
 
Depois disso volta para as guitarras ao mesmo tempo.....depois  
acabou a música. 
 
 
 
_______________________________________________________ 
Contribuição: Guilherme Pontes Ribeiro([email protected]) 

		  

See also:

tabs CPM 22 - 1 minuto para o fim do mundo (solo) tabs Cueio Limão - Maçarico Love Song tabs Forfun - Cara Esperto tabs Anti-Flag - 911 To Peace tabs Blind Pigs - Verão de 68 tabs Forfun - Seu Namorado é um bundão
e-chords

Other versions:

tabs Street Bulldogs - Sweet Threat
auto scroll beats size up size down change color hide chords drawings
tab show chords e-chords YouTube Clip e-chords hide all tabs e-chords go to top tab

share