Street Bulldogs

Play this song again

Street Bulldogs

tabs

save to print version add songbook text version e-mail correct tuner
chordsukulelecavacokeyboardtabbassdrumsharmonicaflute Guitar Pro
close

there isn't a video lesson for this song

chords

Play this song again

	  		 
intro: 
|-------0-----------0----------0---------0-- 
|------------------------------0---------0 
|-----2----------2------------------------ 
|---2---------3-------------2----------2---- 
|-0---------0-------------2---------2------- 
|-----------------------0---------0------- 
 
this is the sound we make 
i know i will never stop 
is make me feel alive 
inside of me 
from my soul and straight to hearth 
 
refrao: 
|--------------------------------------- 
|--*---*---------------------------------- 
|*-5-*-5-*---*-------------------------------- 
|3-5-3-5-5---7--3--5--7----------------------------- 
|3-3-3-3-5---7--3--5--7----------------------------- 
|1---1---3---5--1--3--5--3-0-3-0-30-30------------- 
nobody can stop me 
this is my way to live 
forever and ever 
can start now and aply this song again 
 
base: 
|--------------------------------------- 
|---*----------------------------------- 
|-*-5--*-*------------------------------ 
|-7-5--2-2----------------------------- 
|-7-3--2-2------------------------------ 
|-5----0-0------------------------------ 
we have a road to run 
i know i will never stop 
is always bring me up 
i'll plays and over over again 
 
refrao: 
|--------------------------------------- 
|--*---*---------------------------------- 
|*-5-*-5-*---*-------------------------------- 
|3-5-3-5-5---7--3--5--7----------------------------- 
|3-3-3-3-5---7--3--5--7----------------------------- 
|1---1---3---5--1--3--5--3-0-3-0-30-30------------- 
nobody can stop me 
this is my way to live 
forever and ever 
can start now and aply this song again 
 
solo:A, C, E, E 
começa num bem na nota ré......e depois se vira 
 
o refrao denovo 
 
e termina 
|--------------------------------------- 
|--*---*---------------------------------- 
|*-5-*-5-*---*-------------------------------- 
|3-5-3-5-5---7--3--5--7----------------------------- 
|3-3-3-3-5---7--3--5--7----------------------------- 
|1---1---3---5--1--3--5--3-0-3-0-30-30-3-0-3-0-3-0-3 
0-3-0-3-0-3 
 
 
_______________________________________________________ 
Contribuição: Marcos Paulo Gomides Abe([email protected]) 

		  

Full key step upFull key step up
Half key step upHalf key step up
Half key step downHalf key step down
Full key step downFull key step down
hide glossary

See also:

tabs CPM 22 - 1 minuto para o fim do mundo (solo) tabs Cueio Limão - Maçarico Love Song tabs Forfun - Cara Esperto tabs Anti-Flag - 911 To Peace tabs Blind Pigs - Verão de 68 tabs Forfun - Seu Namorado é um bundão
e-chords

Other versions:

tabs Street Bulldogs - Play this song again
auto scroll beats size up size down change color hide chords drawings
tab show chords e-chords YouTube Clip e-chords hide all tabs e-chords go to top tab

share