Street Bulldogs

Only The Rage Survives

Street Bulldogs

tabs

save to print version add songbook text version e-mail correct tuner
chordsukulelecavacokeyboardtabbassdrumsharmonicaflute Guitar Pro
close

there isn't a video lesson for this song

chords

Only The Rage Survives

	  		 
Intro: 
 
e)-------------------------------------| 
B)-------------------------------------| 
G)-------------------------------------| 
D)-------------------------------------| 
A)-5-5h6-6s8-6---6-6-5--5s3-3-3h5-3-1--| 
E)-------------------------------------| 
 
  
verso (abafado) 
(ahh menos o ultimo acorde) 
 
e)--------------------------------| 
B)--------------------------------| 
G)------8---3---5-----------------| 
D)--5---8---3---5-----------------| 
A)--5---6---1---3-----------------| 
E)--3-----------------------------| 
 
 
Pré-Refrao: 
 
Antes do refrao: 
 
e)--------------------------------| 
B)--------------------------------| 
G)--7--------8--------------------| 
D)--7-(5x)---8-(5x)---------------| 
A)--5--------6--------------------| 
E)--------------------------------| 
 
 
Refrao: Nao eh abafado 
 
e)--------------------------------| 
B)--------------------------------| 
G)------8---3---5-----------------| 
D)--5---8---3---5-----------------| 
A)--5---6---1---3-----------------| 
E)--3-----------------------------| 
 
 
 
 
 
_______________________________________________________ 
Contribuição: ([email protected]) 

		  

See also:

tabs CPM 22 - 1 minuto para o fim do mundo (solo) tabs Cueio Limão - Maçarico Love Song tabs Forfun - Cara Esperto tabs Anti-Flag - 911 To Peace tabs Blind Pigs - Verão de 68 tabs Forfun - Seu Namorado é um bundão
e-chords

Other versions:

tabs Street Bulldogs - Only The Rage Survives
auto scroll beats size up size down change color hide chords drawings
tab show chords e-chords YouTube Clip e-chords hide all tabs e-chords go to top tab

share