Street Bulldogs

No Words

Street Bulldogs

tabs

save to print version add songbook text version e-mail correct tuner
chordsukulelecavacokeyboardtabbassdrumsharmonicaflute Guitar Pro
close

there isn't a video lesson for this song

chords

No Words

	  		 
Intro 
Guitar 1 
e|----------------------------------------------------------------------------------------- 
B|----------------------------------------------------------------------------------------- 
G|-4---8-9-11------------------------------------------------------------------------------ 
D|-4-6-8-9-11--2x-------------------------------------------------------------------------- 
A|-2-6-6-7--9------------------------------------------------------------------------------ 
E|---4------------------------------------------------------------------------------------- 
 
Guitar 2 
e|----------------------------------------------------------------------------------------- 
B|----------------------------------------------------------------------------------------- 
G|-7-9-7-6-7-7-9-7-12-11-11-12-14---------------------------------------------------------- 
D|---------------------------------2x------------------------------------------------------ 
A|-5-7-5-4-5-5-7-5-10--9--9-10-12---------------------------------------------------------- 
E|----------------------------------------------------------------------------------------- 
 
Verso 
Guitar 1 
e|----------------------------------------------------------------------------------------- 
B|----------------------------------------------------------------------------------------- 
G|-4---8-9-11------------------------------------------------------------------------------ 
D|-4-6-8-9-11--4x-------------------------------------------------------------------------- 
A|-2-6-6-7--9------------------------------------------------------------------------------ 
E|---4------------------------------------------------------------------------------------- 
 
Guitar 2 
e|----------------------------------------------------------------------------------------- 
B|----------------------------------------------------------------------------------------- 
G|-4---8----------------------------------------------------------------------------------- 
D|-4-6-8-2-4--4x--------------------------------------------------------------------------- 
A|-2-6-6-2-4------------------------------------------------------------------------------- 
E|---4---0-2------------------------------------------------------------------------------- 
 
Refrao 
Guitar 1 
e|----------------------------------------------------------------------------------------- 
B|----------------------------------------------------------------------------------------- 
G|---7-9-5-7------------------------------------------------------------------------------- 
D|-5-7-9-5-7--2x--5------------------------------------------------------------------------ 
A|-5-5-7-3-5------5------------------------------------------------------------------------ 
E|-3--------------3------------------------------------------------------------------------ 
 
Refrao 
Guitar 2 
e|----------------------------------------------------------------------------------------- 
B|----------------------------------------------------------------------------------------- 
G|---7---5-7------------------------------------------------------------------------------- 
D|-5-7-2-5-7--2x--5------------------------------------------------------------------------ 
A|-5-5-2-3-5------5------------------------------------------------------------------------ 
E|-3---0----------3------------------------------------------------------------------------ 
 
-------------------------------------Repete-Intro------------------------------------------ 
 
-------------------------------------Repete-Verso------------------------------------------ 
 
-------------------------------------Repete-Refrao--2x------------------------------------- 
 
Ponte 
Guitar 1 
e|----------------------------------------------------------------------------------------- 
B|----------------------------------------------------------------------------------------- 
G|-4---8-9-11------------------------------------------------------------------------------ 
D|-4-6-8-9-11--2x-------------------------------------------------------------------------- 
A|-2-6-6-7--9------------------------------------------------------------------------------ 
E|---4------------------------------------------------------------------------------------- 
 
Guitar 2 
e|----------------------------------------------------------------------------------------- 
B|----------------------------------------------------------------------------------------- 
G|-7-9-7-6-7-7-9-7-12-11-11-12-14--9-8-9-11-9-8-9-8-9-11-9-8-9-8-9-11-9-8------------------ 
D|------------------------------------------------------------------------9-11-9-7-5------- 
A|-5-7-5-4-5-5-7-5-10--9--9-10-12---------------------------------------------------------- 
E|----------------------------------------------------------------------------------------- 
 
------------------------------------Repete-Refrao--2x-------------------------------------- 
 
Por Maycon André Mantau Espindola 
E-Mail: [email protected] 
qualquer coisa da um toque blz 
 
 
 
_______________________________________________________ 
Contribuição: Maycon Andre Mantau Espindola([email protected]) 

		  

See also:

tabs CPM 22 - 1 minuto para o fim do mundo (solo) tabs Cueio Limão - Maçarico Love Song tabs Forfun - Cara Esperto tabs Anti-Flag - 911 To Peace tabs Blind Pigs - Verão de 68 tabs Forfun - Seu Namorado é um bundão
e-chords

Other versions:

tabs Street Bulldogs - No Words
auto scroll beats size up size down change color hide chords drawings
tab show chords e-chords YouTube Clip e-chords hide all tabs e-chords go to top tab

share