Street Bulldogs

Karma Chameleon

Street Bulldogs

tabs

save to print version add songbook text version e-mail correct tuner
chordsukulelecavacokeyboardtabbassdrumsharmonicaflute Guitar Pro
close

there isn't a video lesson for this song

chords

Karma Chameleon

	  		 
Intro: 
|-----------------------------------------------.---| 
|-----------------------------------------------.---| 
|-----------------------------------------------.---| 
|-0h2-2-2-0----------.-------4-4-2p0------------.2x-| 
|-----------2h3-0----.2x-0-0-------------4-4-2p0.---| 
|-----------------5/-.---------------0-0--------.---| 
 
Verso: 
|------------------| 
|------------------| 
|------------------| 
|--7--2--7.--------| 
|--7--2--7.2x------| 
|--5--0--5.--------| 
--PM-PM-PM----------- 
 
Pré-Refrão: 
|---------------------| 
|---------------------| 
|--7---9.---7-----9---| 
|--7---9.3x-7--7--9---| 
|--5---7.---5--7--7---| 
|--------------5------| 
 
Refrao: 
|---------------------| 
|---------------------| 
|-----------4--2------| 
|--7--2--4--4--2--2---| 
|--7--2--4--2--0--2---| 
|--5--0--2--------0---| 
 
 
Ponte: 
|---------------------| 
|---------------------| 
|--7---9.---7-----9---| 
|--7---9.3x-7--7--9---| 
|--5---7.---5--7--7---| 
|--------------5------| 
 
_______________________________________________________ 
Contribuição: Bruno - "No More"([email protected]) 

		  

See also:

tabs CPM 22 - 1 minuto para o fim do mundo (solo) tabs Cueio Limão - Maçarico Love Song tabs Forfun - Cara Esperto tabs Anti-Flag - 911 To Peace tabs Blind Pigs - Verão de 68 tabs Forfun - Seu Namorado é um bundão
e-chords

Other versions:

tabs Street Bulldogs - Karma Chameleon
auto scroll beats size up size down change color hide chords drawings
tab show chords e-chords YouTube Clip e-chords hide all tabs e-chords go to top tab

share