Street Bulldogs

Call Me At Home

Street Bulldogs

tabs

save to print version add songbook text version e-mail correct tuner
chordsukulelecavacokeyboardtabbassdrumsharmonicaflute Guitar Pro
close

there isn't a video lesson for this song

chords

Call Me At Home

	  		 
G  = guitarra 1 !!!! 
G  = guitarra 2 !!!! 
------------------------------------------------------------ 
 
Intro (G ) 8x 
e|-----------------------------------------| 
B|-------666666-555-666-888-656------------| 
G|-------555555-555-555-555-555------------| 
D|-----------------------------------------| 
A|-----------------------------------------| 
E|-----------------------------------------| 
 
Intro (G ) 4x  
e|------------------------------------| 
B|------------------------------------| 
G|----------7-7-7-7--0-0-0-0--5-5-5-5-| 
D|-5-5-5-5--7-7-7-7--2-2-2-2--5-5-5-5-| 
A|-5-5-5-5--5-5-5-5--2-2-2-2--3-3-3-3-| 
E|-3-3-3-3----------------------------| 
 
 
Versos (G G ) P.M. em todos  
e|------------------------------------| 
B|------------------------------------| 
G|----------7-7-7-7--0-0-0-0--5-5-5-5-| 
D|-5-5-5-5--7-7-7-7--2-2-2-2--5-5-5-5-| 
A|-5-5-5-5--5-5-5-5--2-2-2-2--3-3-3-3-| 
E|-3-3-3-3----------------------------| 
 
 
Refrão (G ) 
e|-----------------------------------------------| 
B|-----------------------------------------------| 
G|---12-12-12-12---7-7-7-7---9-9-9-9---5-5-5-5---| 
D|---x--x--x--x----x-x-x-x---x-x-x-x---x-x-x-x---| 
A|---10-10-10-10---5-5-5-5---7-7-7-7---3-3-3-3---| 
E|-----------------------------------------------| 
 
 
Refrão (G ) em todos  
e|------------------------------------| 
B|------------------------------------| 
G|----------7-7-7-7--0-0-0-0--5-5-5-5-| 
D|-5-5-5-5--7-7-7-7--2-2-2-2--5-5-5-5-| 
A|-5-5-5-5--5-5-5-5--2-2-2-2--3-3-3-3-| 
E|-3-3-3-3----------------------------| 
 
 
Solo parte 1 (G ) - A segunda guitarra para aqui! 
e|-----------------------------------------------------------| 
B|-----------------------------------------------------------| 
G|-----------------------------------------------------------| 
D|--6/9-8/11-11/7--7/9-9/5-5/7--7/9-9-9--9/5-5-5--5/-7-7-7---| 
A|-----------------------------------------------------------| 
E|-----------------------------------------------------------| 
 
e|---------------------------| 
B|---------------------------| 
G|---------------------------| 
D|--9-9-9--9/7-7-7--7/5-5-5--| 
A|---------------------------| 
E|---------------------------| 
 
Solo Parte 2 (G ) 
e|---------------------------------------------------------------------------------------| 
B|--9^-9998^-8912^--8-9-8------6/8-9-8---------------------------------------------------| 
G|------------------------10-8---------6/8-10-8-10-8-10-11-10-8---6/10-11-10-8-10-8-6-7--| 
D|---------------------------------------------------------------------------------------| 
A|---------------------------------------------------------------------------------------| 
E|---------------------------------------------------------------------------------------| 
 
Solo Parte 2 (G ) 
e|-----------------------------------------------| 
B|-----------------------------------------------| 
G|---12-12-12-12---7-7-7-7---9-9-9-9---5-5-5-5---| 
D|---x--x--x--x----x-x-x-x---x-x-x-x---x-x-x-x---| 
A|---10-10-10-10---5-5-5-5---7-7-7-7---3-3-3-3---| 
E|-----------------------------------------------| 
 
Fim (G ) Junto com o ultimo verso 
e|-----------------------------------------| 
B|-------666666-555-666-888-656------------| 
G|-------555555-555-555-555-555------------| 
D|-----------------------------------------| 
A|-----------------------------------------| 
E|-----------------------------------------| 
 
Comentários, opiniões, correções, críticas, Cheques, dinheiro e  
garotas, entre em contato: [email protected]  -  Eh Isso  
Galera Hardcore domina! 
 
Rodrigo Martinez (UMbiGo!) Guitarrista da Banda Slick Burp - www.slickburp.kit.net 
 
_______________________________________________________ 
Contribuição: Rodrigo Martinez (UMbIgO)([email protected]) 

		  

Full key step upFull key step up
Half key step upHalf key step up
Half key step downHalf key step down
Full key step downFull key step down
hide glossary

See also:

tabs Banda Glória - asas fracas tabs Matanza - Ela Roubou Meu Caminhão tabs CPM 22 - Cidade em Chamas tabs Tequila Baby - 51 tabs CPM 22 - O Mundo Dá Voltas tabs Blind Pigs - Legião de Inconformados
e-chords

Other versions:

tabs Street Bulldogs - Call Me At Home
auto scroll beats size up size down change color hide chords drawings
tab show chords e-chords YouTube Clip e-chords hide all tabs e-chords go to top tab

share