Street Bulldogs

Adolf

Street Bulldogs

tabs

save to print version add songbook text version e-mail correct tuner
chordsukulelecavacokeyboardtabbassdrumsharmonicaflute Guitar Pro
close

there isn't a video lesson for this song

chords

Adolf

	  		 
TABLATURA ESCRITA POR JOÃO RAFAEL NEVES (NO ONE KNOWS) 
 
INTRO.: 
                   A'        G' F'             D         G' A' 
SOLO DE BAIXO: G|------------------------------------------------------| 
               D|--7--7-7-7--5--3--3-3-3-3-3-------------5--7--7-7-7-7-| 
               A|------------------------------5--5-5-5----------------| 
               E|------------------------------------------------------| 
 
GUITARRA ACOMPANHANDO O BAIXO NA INTRO 
(TOCAR JUNTO COM O BAIXO QUANDO FOR REPETIR O SOLO (DE BAIXO) PELA 2ª VEZ): 
 
               E|-----------------| 
               B|-----------------| 1x APOS O SOLO DE BAIXO. 
               G|-----------------|     
               D|-----------------| 
               A|---10-/-12-------| 
               E|-----------------|  
                    (SLIDE) 
 
OUTRA GUITARRA DURANTE A INTRO, (POUCO ANTES DO FIM DA INTRO) 
 
                          A' 
               E|----------------------| 
               B|----------------------|  APOS A 2ª VEZ QUE FOR TOCADO O SOLO DE BAIXO. 
               G|----------------------|     
               D|--X--X-14--X--X-14-14-|  LEVAR ESSA BATIDA ATÉ A PROXIMA PARTE DA INTRO. 
               A|-12-12-12-12-12-12-12-| 
               E|----------------------| 
 
2ª PARTE DA INTRO.  ( 2x) 
 
                   A'            G'  F'                 D'           G'  A' 
               E|------------------------------------------------------------------------| 
               B|------------------------------------------------------------------------|   
               G|------------------------------------------------------------------------|     
               D|--14--14-14-14--12--10--10-10-10-10-10--------------12--14--14-14-14-14-| (2x) 
               A|--12--12-12-12--10--8---8--8--8--8--8--12--12-12-12-10--12--12-12-12-12-| 
               E|---------------------------------------10--10-10-10---------------------| 
 
 COMPLEMENTO DA 2ª PARTE DA INTRO: 
                   A' (MAIS RAPIDO)                    G' 
               E|-----------------------------------------| 
               B|-----------------------------------------|   
               G|-----------------------------------------|     
               D|--X--X-14--X--X-14--X--X-14--X--X-14--12-| (4X)  
               A|-12-12-12-12-12-12-12-12-12-12-12-12--10-| 
               E|-----------------------------------------| 
 
 
 
                   REPETE 2ª PARTE DA INTRO. 
 
 
 
        VERSO:     A         G  F             D           G  A 
               E|----------------------------------------------------| 
               B|----------------------------------------------------|   
               G|-----------------------------7--7-7-7---------------|     
               D|--7--7-7-7--5--3--3-3-3-3-3--7--7-7-7-5--7--7-7-7-7-| (4x) 
               A|--7--7-7-7--5--3--3-3-3-3-3--5--5-5-5-5--7--7-7-7-7-| 
               E|--5--5-5-5--3--1--1-1-1-1-1-----------3--5--5-5-5-5-| 
        
      PRE-REFRÃO: 
                   D    C     G A      G A 
               E|-----------|---------------------| 
               B|-----------|---------------------| 
               G|--7-7--5-5-|---------------------|  (2X) 
               D|--7-7--5-5-|-5/7---7--5/7---7----| 
               A|--5-5--3-3-|-5/7-X-7--5/7-X-7----| 
               E|-----------|-3/5-X-5--3/5-X-5----| 
                            (SLIDE)  (SLIDE) 
     REFRÃO: 
               A           G           D 
            E|------------------------------------------------| 
            B|------------------------------------------------| 
            G|-------------------------7--7-7-7-7--7--7-7-7-7-|  (4X) 
            D|-7--7-7-7-7--5--5-5-5-5--7--7-7-7-7--7--7-7-7-7-| 
            A|-7--7-7-7-7--5--5-5-5-5--5--5-5-5-5--5--5-5-5-5-| 
            E|-5--5-5-5-5--3--3-3-3-3-------------------------| 
 
APOS O REFRÃO: 
                   D    C     G A      G A 
               E|-----------|---------------------| 
               B|-----------|---------------------| 
               G|--7-7--5-5-|---------------------|   
               D|--7-7--5-5-|-5/7---7--5/7---7----| 
               A|--5-5--3-3-|-5/7-X-7--5/7-X-7----| 
               E|-----------|-3/5-X-5--3/5-X-5----| 
                            (SLIDE)  (SLIDE) 
 
                   D    C     G                    G A      G A      G A      G A 
               E|-----------|---------------------------------------------------------| 
               B|-----------|---------------------------------------------------------| 
               G|--7-7--5-5-|---------------------------------------------------------|   
               D|--7-7--5-5-|-5---5--5-5-5-5-5-5---5/7---7--5/7---7--5/7---7--5/7---7-| 
               A|--5-5--3-3-|-5-X-5--5-5-5-5-5-5- -5/7-X-7--5/7-X-7--5/7-X-7--5/7-X-7-| 
               E|-----------|-3-X-3--3-3-3-3 3-3-- 3/5-X-5--3/5-X-5--3/5-X-5--3/5-X-5-| 
                                                 (SLIDE)  (SLIDE)  (SLIDE)  (SLIDE) 
 
               REPETE 2ª PARTE DA INTRO. (SEM O COMPLEMENTO) 
 
               REPETE  VERSO 
 
               REPETE  PRÉ-REFRÃO 
 
               REPETE  REFRÃO 
 
               REPETE  APOS O REFRÃO 
          
          TABLATURA ESCRITA POR JOÃO RAFAEL NEVES (NO ONE KNOWS)  
          CORREÇÕES, OPINIÕES, CRITICAS, COMENTÁRIOS, DÚVIDAS ME MANDE UM E-MAIL:  
          [email protected] 
 
 
               
 
_______________________________________________________ 
Contribuição: João Rafael Neves([email protected]) 

		  

Full key step upFull key step up
Half key step upHalf key step up
Half key step downHalf key step down
Full key step downFull key step down
hide glossary

See also:

tabs CPM 22 - 1 minuto para o fim do mundo (solo) tabs Cueio Limão - Maçarico Love Song tabs Forfun - Cara Esperto tabs Anti-Flag - 911 To Peace tabs Blind Pigs - Verão de 68 tabs Forfun - Seu Namorado é um bundão
e-chords

Other versions:

tabs Street Bulldogs - Adolf
auto scroll beats size up size down change color hide chords drawings
tab show chords e-chords YouTube Clip e-chords hide all tabs e-chords go to top tab

share