Stray Cats

Jeanie Jeanie Jeanie

Stray Cats

tabs

by  TERR_SCHMITZ

save to print version add songbook text version e-mail correct tuner
chordsukulelecavacokeyboardtabbassdrumsharmonicaflute Guitar Pro
close

there isn't a video lesson for this song

chords

Jeanie Jeanie Jeanie

	  		


Gtr I (E A D G B E) - 'Brian Setzer - Electric Guitar' 
Gtr II (E A D G B E) - 'Brian Setzer - Electric Guitar' 


 Intro 
  Q=172 
  G                                                       D 
 4/4 
  Gtr I 
  Q   E E Q   E E   E Q   E Q   E E   E E E E Q   E E   E E E E E E E E 
|-----------------|-----------------|-----------------|-----------------|| 
|-----------------|-----------------|-----------------|-----------------|| 
|---------------0-|---0-------------|-----------------|---7-7-7-7-7-7-7-|| 
|-0---2-2-0---2---|-------2-0---2-0-|-0-0-2-2-0---2-3-|---7-7-7-7-7-7-7-|| 
|-----------------|-----------------|-----------------|---5-5-5-5-5-5-5-|| 
|-----------------|-----------------|-----------------|-----------------|| 
| 
| Gtr II 
| E E E E E E E E   E E E E E E E E   E E E E E E E E   E E E E E E E E 
|-----------------|-----------------|-----------------|-----------------|| 
|-----------------|-----------------|-----------------|-----------------|| 
|-----------------|-----------------|-----------------|-----------------|| 
|-----------------|-----------------|-----------------|---7-7-7-7-7-7-7-|| 
|-5-5-7-5-5-5-7-5-|-5-5-7-5-5-5-7-5-|-5-5-7-5-5-5-7-5-|---5-5-5-5-5-5-5-|| 
|-3-3-3-3-3-3-3-3-|-3-3-3-3-3-3-3-3-|-3-3-3-3-3-3-3-3-|-----------------|| 


   1st - 3rd Verses 
    $ 
    G 
    E E E E E E E E   E E E E E E E E   E E E E Q   E E   E Q   E Q   Q 
||------------------|-----------------|-----------------|-------------------| 
||o-----------------|-----------------|-----------------|-------------------| 
||------------------|-----------------|---------------0-|---0---------------| 
||------------------|-----------------|-----2-2-0---2---|-------2-0---2-----| 
||o-5-5-7-5-5-5-7-5-|-5-5-7-5-5-5-7-4s|=5-5-------------|-------------------| 
||--3-3-3-3-3-3-3-3-|-3-3-3-3-3-3-3-2s|=3-3-------------|-------------------| 
| 
|   E E E E E E E E   E E E E E E E E   E E E E E E E E   E E E E E E E E 
||------------------|-----------------|-----------------|-------------------| 
||o-----------------|-----------------|-----------------|-------------------| 
||------------------|-----------------|-----------------|-------------------| 
||------------------|-----------------|-----------------|-------------------| 
||o-5-5-7-5-5-5-7-5-|-5-5-7-5-5-5-7-4s|=5-5-7-5-5-5-7-4s|=5-5-7-5-5-5-7-4s==| 
||--3-3-3-3-3-3-3-3-|-3-3-3-3-3-3-3-2s|=3-3-3-3-3-3-3-2s|=3-3-3-3-3-3-3-2s==| 


                                                              A   A#  B 
  E E E E E E E E   E E E E E E E E   E E E E Q   E E   +E  Q   E Q   Q 
|-----------------|-----------------|-----------------|-------------------|| 
|-----------------|-----------------|-----------------|-------------------|| 
|-----------------|-----------------|-----------------|-------------------|| 
|-----------------|-----------------|-----2-2-0---2-3-|-(3)-3---2-0---2---|| 
|-5-5-7-5-5-5-7-5-|-5-5-7-5-5-5-7-4s|=5-5-------------|-------------------|| 
|-3-3-3-3-3-3-3-3-|-3-3-3-3-3-3-3-2s|=3-3-------------|-------------------|| 
| 
| E E E E E E E E   E E E E E E E E   E E E E E E E E    E  E E E E E E E 
|-----------------|-----------------|-----------------|-------------------|| 
|-----------------|-----------------|-----------------|-------------------|| 
|-----------------|-----------------|-----------------|-------------------|| 
|-----------------|-----------------|-----------------|-------------------|| 
|-5-5-7-5-5-5-7-5-|-5-5-7-5-5-5-7-4s|=5-5-7-5-5-5-7-5-|--5--5-7-7-8-8-9-9-|| 
|-3-3-3-3-3-3-3-3-|-3-3-3-3-3-3-3-2s|=3-3-3-3-3-3-3-3-|--3--3-5-5-6-6-7-7-|| 


 Chorus 
  C                               G 
  E E E E E E E E   E E E E E E E E   +E  E E E E E E E 
|-----------------|-----------------|--------------------| 
|-----------------|-----------------|--------------------| 
|-----------------|-----------------|--------------------| 
|-5-5-7-5-5-5-7-5-|-5-5-7-5-5-5-7---|--------------------| 
|-3-3-3-3-3-3-3-3-|-3-3-3-3-3-3-3-5-|-(5)-5-7-5-5-5-7-4s=| 
|-----------------|---------------3-|-(3)-3-3-3-3-3-3-2s=| 
| 
| E E E E E E E E   E E E E E E E E   +E  E E E E E E E 
|-----------------|-----------------|--------------------| 
|-----------------|-----------------|--------------------| 
|-----------------|-----------------|--------------------| 
|-5-5-7-5-5-5-7-5-|-5-5-7-5-5-5-7---|--------------------| 
|-3-3-3-3-3-3-3-3-|-3-3-3-3-3-3-3-5-|-(5)-5-7-5-5-5-7-4s=| 
|-----------------|---------------3-|-(3)-3-3-3-3-3-3-2s=| 


                                               To Coda 
                    D                 C 
  E E E E E E E E   E E E E E E E E   E E E E E E E E 
|-----------------|-----------------|------------------| 
|-----------------|-----------------|------------------| 
|-----------------|-----------------|------------------| 
|---------------6s|=7-7-9-7-7-7-9-7-|-5-5-7-5-5-5-7-5--| 
|-5-5-7-5-5-5-7-4s|=5-5-5-5-5-5-5-5-|-3-3-3-3-3-3-3-3--| 
|-3-3-3-3-3-3-3---|-----------------|------------------| 
| 
| E E E E E E E E   E E E E E E E E   E E E E E E E E 
|-----------------|-----------------|------------------| 
|-----------------|-----------------|------------------| 
|-----------------|-----------------|------------------| 
|---------------6s|=7-7-9-7-7-7-9-7-|-5-5-7-5-5-5-7-5--| 
|-5-5-7-5-5-5-7-4s|=5-5-5-5-5-5-5-5-|-3-3-3-3-3-3-3-3--| 
|-3-3-3-3-3-3-3---|-----------------|------------------| 


  1.                                   2. 
  G                   D                 G                          A# 
  E E E E Q   E E   E E E E E E E E     E E E E Q  E E   +E  Q   E Q  E E 
|-----------------|------------------||----------------|-------------------|| 
|-----------------|-----------------o||----------------|-------------------|| 
|-----------------|---7-7-7-7-7-7-7--||----------------|-------------------|| 
|-0-0-2-2-0---2-3-|---7-7-7-7-7-7-7--||-0-0-2-2-0--2-3-|-(3)-3---2-0----4s=|| 
|-----------------|---5-5-5-5-5-5-5-o||----------------|----------------2s=|| 
|-----------------|------------------||----------------|-------------------|| 
| 
| E E E E E E E E   E E E E E E E E     E E E E Q  E E   +E  E Q   Q  E E 
|-----------------|------------------||----------------|-------------------|| 
|-----------------|-----------------o||----------------|-------------------|| 
|-----------------|------------------||----------------|-------------------|| 
|-----------------|---7-7-7-7-7-7-7--||----------------|----------------4s=|| 
|-5-5-7-5-5-5-7-5-|---5-5-5-5-5-5-5-o||-5-5-7-5-5--5-5-|-(5)-5-7---8----2s=|| 
|-3-3-3-3-3-3-3-3-|------------------||-3-3-3-3-3--3-3-|-(3)-3-5---6-------|| 


 Bridge 
  $$ 
  C                                   G 
  H       E E E E   E E E E E E E E   E E E E E E E E   +E  E E E E E E E 
|-----------------|-----------------|-----------------|--------------------| 
|-----------------|-----------------|-----------------|--------------------| 
|-----------------|-----------------|-----------------|--------------------| 
|-5-------5-5-7-5-|-5-5-7-5-5-5-4---|-----------------|-----------------4s=| 
|-3-------3-3-3-3-|-3-3-3-3-3-3-2-7-|-5-5-7-5-5-5-7-5-|-(5)-5-7-5-5-5-7-2s=| 
|-----------------|---------------5-|-3-3-3-3-3-3-3-3-|-(3)-3-3-3-3-3-5----| 
| 
| E E E E E E E E   E E E E E E E E   E E E E E E E E   +E  E E E E E E E 
|-----------------|-----------------|-----------------|--------------------| 
|-----------------|-----------------|-----------------|--------------------| 
|-----------------|-----------------|-----------------|--------------------| 
|-5-5-7-5-5-5-7-5-|-5-5-7-5-5-5-4---|-----------------|-----------------4s=| 
|-3-3-3-3-3-3-3-3-|-3-3-3-3-3-3-2-7-|-5-5-7-5-5-5-7-5-|-(5)-5-7-5-5-5-7-2s=| 
|-----------------|---------------5-|-3-3-3-3-3-3-3-3-|-(3)-3-3-3-3-3-5----| 


                                 To Dbl.D.S. al Coda 
  C 
  E E E E E E E E   E E E E E E Q    q  Q  H      W 
|-----------------|----------------|------------|-------|| 
|-----------------|----------------|------------|-------|| 
|-----------------|----------------|-7----------|-------|| 
|-5-5-7-5-5-5-7-5-|-5-5-7-5-5-5-5--|-7----------|-------|| 
|-3-3-3-3-3-3-3-3-|-3-3-3-3-3-3-3--|-5----------|-------|| 
|-----------------|----------------|------------|-------|| 
| 
| E E E E E E E E   E E E E E E Q    q  Q  H      W 
|-----------------|----------------|------------|-------|| 
|-----------------|----------------|------------|-------|| 
|-----------------|----------------|------------|-------|| 
|-5-5-7-5-5-5-7-5-|-5-5-7-5-5-5-5--|-7----------|-------|| 
|-3-3-3-3-3-3-3-3-|-3-3-3-3-3-3-3--|-5----------|-------|| 
|-----------------|----------------|------------|-------|| 


  & 
  G                  Dsus2 
  E E E E Q  E E   E E E E E E E E 
|----------------|-----------------|| 
|----------------|---5-5-5-5-5-5---|| 
|----------------|---7-7-7-7-7-7-3h|| 
|-0-0-2-2-0--2-3-|-----------------|| 
|----------------|-----------------|| 
|----------------|-----------------|| 
| 
| E E E E Q  E E   E E E E E E E E 
|----------------|-----------------|| 
|----------------|-----------------|| 
|----------------|-----------------|| 
|----------------|---7-7-7-7-7-7-7-|| 
|-5-5-7-5-5--5-5-|---5-5-5-5-5-5-5-|| 
|-3-3-3-3-3--3-3-|-----------------|| 


 Guitar Solo 
  G 
  E E E E E E E E   Q     Q     E    +E  E E 
|---3-3-3-3-3-3-3-|----------------------3----| 
|---3-3-3-3-3-3-3-|-5b7---5b7---5pb7r(5)-3-3--| 
|-4---------------|------------------------3h=| 
|-----------------|---------------------------| 
|-----------------|---------------------------| 
|-----------------|---------------------------| 
| 
| E E E E E E E E   E   E E   E E     E  E E 
|-----------------|---------------------------| 
|-----------------|---------------------------| 
|-----------------|---------------------------| 
|-----------------|---------------------------| 
|-5-5-7-5-5-5-7-4s|=5---5-7---5-5-----5--7-4s=| 
|-3-3-3-3-3-3-3-2s|=3---3-3---3-3-----3--3-2s=| 


  E E E E E E E E   E E E E E E E E 
|---3-3-3-3-3-3---|---3-3-3-3-3-3---| 
|-3-3-3-3-3-3-3-3-|-3-3-3-3-3-3-3-3-| 
|-4-------------3h|=4-------------3h| 
|-----------------|-----------------| 
|-----------------|-----------------| 
|-----------------|-----------------| 
| 
| E E E E E E E E   E E E E E E E E 
|-----------------|-----------------| 
|-----------------|-----------------| 
|-----------------|-----------------| 
|-----------------|-----------------| 
|-5-5-7-5-5-5-7-4s|=5-5-7-5-5-5-7-4s| 
|-3-3-3-3-3-3-3-2s|=3-3-3-3-3-3-3-2s| 


  E E E E E E E E   Q     Q     E    +E  E E 
|---3-3-3-3-3-3-3-|-3-----3-----3--------3----| 
|-3-3-3-3-3-3-3-3-|-5b6---5b6---5pb6r(5)-3-3--| 
|-4---------------|------------------------3h=| 
|-----------------|---------------------------| 
|-----------------|---------------------------| 
|-----------------|---------------------------| 
| 
| E E E E E E E E   E   E E   E E     E  E E 
|-----------------|---------------------------| 
|-----------------|---------------------------| 
|-----------------|---------------------------| 
|-----------------|---------------------------| 
|-5-5-7-5-5-5-7-5-|-5---5-7---5-5-----5--7-5--| 
|-3-3-3-3-3-3-3-3-|-3---3-3---3-3-----3--3-3--| 


                        A   A#  B 
  E E E E E E E E   E E E E E E E E 
|---3-3-3-3-3-3---|---3-3-3-3-3-3---| 
|-3-3-3-3-3-3-3-3-|-3-3-3-3-3-3-3---| 
|-4-------------3h|=4-------------4/| 
|-----------------|-----------------| 
|-----------------|-----------------| 
|-----------------|-----------------| 
| 
| E E E E E E E E   Q   Q   Q   E E 
|-----------------|-----------------| 
|-----------------|-----------------| 
|-----------------|-----------------| 
|-----------------|-------------4-4s| 
|-5-5-7-5-5-5-7-4s|=5---7---8---2-2s| 
|-3-3-3-3-3-3-3-2s|=3---5---6-------| 


  E E E E E E  E E    Q       Q       E      +S  S  E E 
|---8-8-8-8-8--8-8-|--8-------8-------8---------------8-| 
|---8-8-8-8-8-10-8-|-10b11---10b11---10pb11r(10)p8-10-8-| 
|-9----------------|------------------------------------| 
|------------------|------------------------------------| 
|------------------|------------------------------------| 
|------------------|------------------------------------| 
| 
| E E E E E E  E E    E    E  E    E  E       E     E E 
|------------------|------------------------------------| 
|------------------|------------------------------------| 
|------------------|------------------------------------| 
|-5-5-7-5-8-5--7-5-|--5----5--7----5--8-------5-----7-5-| 
|-3-3-3-3-3-3--3-3-|--3----3--3----3--3-------3-----3-3-| 
|------------------|------------------------------------| 


  G 
  E  E      +E   E      E  E      E  E    E  E      E  E  E  E      +E  E 
|---10----------10-----10-10-----10-10-|-10-10-----10-10-10-10------------| 
|---10pb11r(10)-10pb11-10-10pb11-10-10-|-10-10pb11-10-10-10-10pb11r(10)---| 
|--------------------------------------|--------------------------------9s| 
|--------------------------------------|----------------------------------| 
|--------------------------------------|----------------------------------| 
|--------------------------------------|----------------------------------| 
| 
| E  E       E   E      E  E      E  E    E  E      E  E  E  E       E  E 
|--------------------------------------|----------------------------------| 
|--------------------------------------|----------------------------------| 
|--------------------------------------|----------------------------------| 
|--------------------------------------|----------------------------------| 
|-5--5-------7---5------5--5------7--5-|--5--5------7--5--5--5-------7--5-| 
|-3--3-------3---3------3--3------3--3-|--3--3------3--3--3--3-------3--3-| 


  D                        C 
   E  E  E  E  E  E  E E   E E  E E  E     E  E E 
|----10-10-10-10-10-10---|---8-10-8-10----10-10-8--| 
|----10-12-10-12-12-10---|---8-10-8-10b11-10-10-8--| 
|-11-------------------8s|=9-----------------------| 
|------------------------|-------------------------| 
|------------------------|-------------------------| 
|------------------------|-------------------------| 
| 
|  E  E  E  E  E  E  E E   E E  E E  E     E  E E 
|------------------------|-------------------------| 
|------------------------|-------------------------| 
|------------------------|-------------------------| 
|--7--7--9--7--7--7--9-7-|-5-5--7-5--5-----5--7----| 
|--5--5--5--5--5--5--5-5-|-3-3--3-3--3-----3--3-4s=| 
|------------------------|----------------------2s=| 


                   D.S.S. al Dbl. Coda && 
  G                                       D 
  E E E E E E E E   E E E E +H            H    Q  E E 
|---8-8-8-8-8-8-8-|-8-8-8-8-(8)\-------||-------------|| 
|---8-8-8-8-8-8-8-|-8-8-8-8-(8)\-------||---------3-3-|| 
|---7-7-7-7-7-7-7-|-7-7-7-7-(7)\-------||---------2-2-|| 
|-----------------|--------------------||---------0-0-|| 
|-----------------|--------------------||-------------|| 
|-----------------|--------------------||-------------|| 
| 
| E E E E E E E E   E E E E +Q    E E     W 
|-----------------|--------------------||-------------|| 
|-----------------|--------------------||-------------|| 
|-----------------|--------------------||-------------|| 
|-----------------|--------------------||-------------|| 
|-5-5-7-5-5-5-7-5-|-5-5-7-5-(5)---x-x--||-------------|| 
|-3-3-3-3-3-3-3-3-|-3-3-3-3-(3)---x-x--||-------------|| 


 4th Verse 
  G 
  E E E E E E E E   E E E E E E E E   E E E E Q   E E   E Q   E Q   Q 
|-----------------|-----------------|-----------------|------------------| 
|-----------------|-----------------|-----------------|------------------| 
|-----------------|-----------------|---------------0-|---0--------------| 
|-----------------|-----------------|-----2-2-0---2---|-------2-0---2----| 
|-5-5-7-5-5-5-7-5-|-5-5-7-5-5-5-7-4s|=5-5-------------|------------------| 
|-3-3-3-3-3-3-3-3-|-3-3-3-3-3-3-3-2s|=3-3-------------|------------------| 
| 
| E E E E E E E E   E E E E E E E E   E E E E E E E E   E E E E E E E E 
|-----------------|-----------------|-----------------|------------------| 
|-----------------|-----------------|-----------------|------------------| 
|-----------------|-----------------|-----------------|------------------| 
|-----------------|-----------------|-----------------|------------------| 
|-5-5-7-5-5-5-7-5-|-5-5-7-5-5-5-7-4s|=5-5-7-5-5-5-7-4s|=5-5-7-5-5-5-7-4s=| 
|-3-3-3-3-3-3-3-3-|-3-3-3-3-3-3-3-2s|=3-3-3-3-3-3-3-2s|=3-3-3-3-3-3-3-2s=| 


  E E E E E E E E   E E E E E E E E   E E E E Q   E E   +E  Q   E Q   Q 
|-----------------|-----------------|-----------------|-------------------|| 
|-----------------|-----------------|-----------------|-------------------|| 
|-----------------|-----------------|-----------------|-------------------|| 
|-----------------|-----------------|-----2-2-0---2-3-|-(3)-3---2-0---2---|| 
|-5-5-7-5-5-5-7-5-|-5-5-7-5-5-5-7-4s|=5-5-------------|-------------------|| 
|-3-3-3-3-3-3-3-3-|-3-3-3-3-3-3-3-2s|=3-3-------------|-------------------|| 
| 
| E E E E E E E E   E E E E E E E E   E E E E E E E E    E  E E E E E E E 
|-----------------|-----------------|-----------------|-------------------|| 
|-----------------|-----------------|-----------------|-------------------|| 
|-----------------|-----------------|-----------------|-------------------|| 
|-----------------|-----------------|-----------------|-------------------|| 
|-5-5-7-5-5-5-7-5-|-5-5-7-5-5-5-7-4s|=5-5-7-5-5-5-7-5-|--5--5-7-7-8-8-9-9-|| 
|-3-3-3-3-3-3-3-3-|-3-3-3-3-3-3-3-2s|=3-3-3-3-3-3-3-3-|--3--3-5-5-6-6-7-7-|| 


 Chorus 
  C                                     G 
  E E E E E E E E   +E  E E E E E E E   E E E E E E E E 
|-----------------|-------------------|-----------------| 
|-----------------|-------------------|-----------------| 
|-----------------|-------------------|-----------------| 
|-5-5-7-5-5-5-7-5-|-(5)-5-7-5-5-5-7-5-|-----------------| 
|-3-3-3-3-3-3-3-3-|-(3)-3-3-3-3-3-3-3-|-5-5-7-5-5-5-7-5-| 
|-----------------|-------------------|-3-3-3-3-3-3-3-3-| 
| 
| E E E E E E E E   +E  E E E E E E E   E E E E E E E E 
|-----------------|-------------------|-----------------| 
|-----------------|-------------------|-----------------| 
|-----------------|-------------------|-----------------| 
|-5-5-7-5-5-5-7-5-|-(5)-5-7-5-5-5-7-5-|-----------------| 
|-3-3-3-3-3-3-3-3-|-(3)-3-3-3-3-3-3-3-|-5-5-7-5-5-5-7-5-| 
|-----------------|-------------------|-3-3-3-3-3-3-3-3-| 


                    D                 C 
  E E E E E E E E   E E E E E E E E   E E E E E E E E 
|-----------------|-----------------|-----------------|| 
|-----------------|-----------------|-----------------|| 
|-----------------|-----------------|-----------------|| 
|---------------6s|=7-7-9-7-7-7-9-7-|-5-5-7-5-5-5-7-5-|| 
|-5-5-7-5-5-5-7-4s|=5-5-5-5-5-5-5-5-|-3-3-3-3-3-3-3-3-|| 
|-3-3-3-3-3-3-3---|-----------------|-----------------|| 
| 
| E E E E E E E E   E E E E E E E E   E E E E E E E E 
|-----------------|-----------------|-----------------|| 
|-----------------|-----------------|-----------------|| 
|-----------------|-----------------|-----------------|| 
|---------------6s|=7-7-9-7-7-7-9-7-|-5-5-7-5-5-5-7-5-|| 
|-5-5-7-5-5-5-7-4s|=5-5-5-5-5-5-5-5-|-3-3-3-3-3-3-3-3-|| 
|-3-3-3-3-3-3-3---|-----------------|-----------------|| 


 Outro 
  G       C         G 
  E E E E E E E E   E E E E +H       +W 
|-3---3---3---3---|-3-3-3-3-(3)----|-(3)----*| 
|-3---3---5---5---|-3-3-3-3-(3)----|-(3)----*| 
|-4---4---5---5---|-4-4-4-4-(4)----|-(4)----*| 
|-5---5---5---5---|-5-5-5-5-(5)----|-(5)----*| 
|-5---5---3---3---|-5-5-5-5-(5)----|-(5)----*| 
|-3---3-----------|-3-3-3-3-(3)----|-(3)----*| 
| 
| E E E E E E E E   E E E E +H       +W 
|-----------------|----------------|--------*| 
|-----------------|----------------|--------*| 
|-----------------|----------------|--------*| 
|---------5---5---|----------------|--------*| 
|-5---5---3---3---|-5-5-5-5-(5)----|-(5)----*| 
|-3---3-----------|-3-3-3-3-(3)----|-(3)----*| 


Duration Legend 
--------------- 
W - whole; H - half; Q - quarter; E - 8th; S - 16th; T - 32nd; X - 64th; a - acciaccatura 
+ - note tied to previous; . - note dotted; .. - note double dotted 
Uncapitalized letters represent notes that are staccato (1/2 duration) 
Irregular groupings are notated above the duration line 
Duration letters will always appear directly above the note/fret number it represents the 
duration for.  Duration letters with no fret number below them represent rests.  Multi- 
bar rests are notated in the form Wxn, where n is the number of bars to rest for.  Low 
melody durations appear below the staff 

Tablature Legend 
---------------- 
 h   - hammer-on 
 p   - pull-off 
 b   - bend 
 pb  - pre-bend 
 r   - bend release (if no number after the r, then release immediately) 
 /\  - slide into or out of (from/to "nowhere") 
 s   - legato slide 
 S   - shift slide 
  - natural harmonic 
n  - artificial harmonic 
n(n) - tapped harmonic 
 ~   - vibrato 
 tr  - trill 
 T   - tap 
 TP  - trem. picking 
 PM  - palm muting 
\n/  - tremolo bar dip; n = amount to dip 
 \n  - tremolo bar down 
 n/  - tremolo bar up 
/n\  - tremolo bar inverted dip 
 =   - hold bend; also acts as connecting device for hammers/pulls 
 <>  - volume swell (louder/softer) 
 x   - on rhythm slash represents muted slash 
 o   - on rhythm slash represents single note slash 

Misc Legend 
----------- 
 |  - bar 
||  - double bar 
||o - repeat start 
o|| - repeat end 
*|  - double bar (ending) 
 :  - bar (freetime) 
 $  - Segno 
 &  - Coda 
Tempo markers -  = BPM(8/16=s8/s16), where s8 = swing 8ths, s16 = swing 16ths 
		  

See also:

tabs Soundtracks - Forrest Gump - Theme tabs Jesus Christ Superstar - Overture tabs Dick dale - Miserlou 2 tabs Poison - Every rose has its thorn tabs Soundtracks - Ghostbusters Theme tabs John Williams - Star wars theme
e-chords

Other versions:

tabs Stray Cats - Jeanie Jeanie Jeanie
auto scroll beats size up size down change color hide chords drawings
tab show chords e-chords YouTube Clip e-chords hide all tabs e-chords go to top tab

share