Stratovarius

The Abyss Of Yours Eyes

Stratovarius

tabs

save to print version add songbook text version e-mail correct tuner
chordsukulelecavacokeyboardtabbassdrumsharmonicaflute Guitar Pro
close

there isn't a video lesson for this song

chords

The Abyss Of Yours Eyes

	  		 
Versão 1: 
 
Music: The Abyss Of Your Eyes 
Album: VISIONS 
 
 Guitar 1/2 step down!!! 
------------------------- 
/\/ = Vibrato 
/   = Slide Up 
ha  = Harmonic 
1/2 = bend half step 
 1b 
/\ = Bend one tone 
------------------------- 
 
Intro: 
eb|-----------------------------------------------------------|-------------| 
Bb|------------------------|----------------------------------|-------------| 
Gb|------------------------|----------------------------------|-------------| 
Db|---2-/4-2-4--2-/4--2-4--|--4-/5-4-5---2-/4-2-4--2-/4--2-4--|--4-/5-4-5---| 
Ab|---2--2-2-2--2--2--2-2--|--3--3-3-3---2--2-2-2--2--2--2-2--|--3--3-3-3---| 
Eb|-------------------------------------------------------------------------| 
 
 
Riff A      Pm....       ...      .... ... ..    ....      .... 
eb|-------------------------------------------------------------------------| 
Bb|-------------------------------------------------------------------------| 
Gb|-------------------------------------------------------------------------| 
Db|--2-/4------------2-/4-----2-/4------2/4---4/5------4/-5-----4-/5--4-4/5-| 
Ab|--2--2------2-2---2--2-2-2-2--2--2-2-2-2-2-3-3--3-3-3--3-3-3-3--3--3-3-3-| 
Eb|-------------------------------------------------------------------------| 
 
 
Riff A      Pm....       ...      .... ... ..    ....      .... 
eb|-------------------------------------------------------------------------| 
Bb|-------------------------------------------------------------------------| 
Gb|-------------------------------------------------------------------------| 
Db|--2-/4------------2-/4-----2-/4------2/4---4/5------4/-5-----4-/5--4-4/5-| 
Ab|--2--2------2-2---2--2-2-2-2--2--2-2-2-2-2-3-3--3-3-3--3-3-3-3--3--3-3-3-| 
Eb|-------------------------------------------------------------------------| 
 
Keyboard ar. for Guitar                                           /----2X--- 
eb|----------------------------------------------------5--------------------| 
Bb|--7-5-----7-5---7-5----7-5----7-5----8-7----8-7--------8--7--8-|---5-----| 
Gb|-------4------4-----4------4------4------5------5--------------|-----4---| 
Db|---------------------------------------------------------------|-------2-| 
Ab|---------------------------------------------------------------|---------| 
Eb|-------------------------------------------------------------------------| 
 
-----------------------------------\    I feel like I'm drowning ... 
eb|-------------------------------------------------------------------------| 
Bb|---------5-4-----------6-5--3--5--|----------------------------3\/\/\----| 
Gb|------2-------------3-------------|----------0-/\/\---------0------------| 
Db|----2------------5----------------|--------4------------4----------------| 
Ab|--0------------3------------------|-----2-------------3------------------| 
Eb|-------------------------------------0-----------------------------------| 
 
PRE-CHORUS 
deep Underneath my skin...                   hear my cry... 
 
eb|-------------------------------------------------------------------------| 
Bb|-------------------------------------------------------------------------| 
Gb|-------------------------------------------------------------------------| 
Db|--2-/4-4-4--4-4-4-2-/4-----2-/4------2/4---4/5------4/-5-----4-/5--4-4/5-| 
Ab|--2--2-2-2--2-2-2-2--2-2-2-2--2--2-2-2-2-2-3-3--3-3-3--3-3-3-3--3--3-3-3-| 
Eb|-------------------------------------------------------------------------| 
 
My life is changing... I cannot Recall...    The Abyss of your Eyes... 
 
eb|-------------------------------------------------------------------------| 
Bb|-----------------------------------|----7-5----7-5---7-5----7-5----8-7---| 
Gb|--2-2-/\/\/------------------------|--------4------4-----4------4------5-| 
Db|--2-2-/\/\-----------5--5/\/-------|-------------------------------------| 
Ab|--0-0/\/\/-----------3--3/\/-------|-------------------------------------| 
Eb|-------------------------------------------------------------------------| 
 
 
                      I Losing my mind... 
eb|---------5---------------------------------------------------------------| 
Bb|--8-7------8-7-8-|-----5------------5-4--------6-5-3-5-|-----------------| 
Gb|------5----------|-------4--------2----------3---------|-----------------| 
Db|-----------------|---------2----2----------5-----------|-----------------| 
Ab|-----------------|------------2----------3-------------|-----------------| 
Eb|-------------------------------------------------------------------------| 
 
The Sun Doesn't shine 
 
eb|-------------------------------------------------------------------------| 
Bb|-----------------------3/\/--|----------------------3/\/\|-rEPEAt--------| 
Gb|-----------0-/\/----0--------|-------0-/\/\-------0------|----pRE cHOrus-| 
Db|---------4--------4----------|-----4------------4--------|---------------| 
Ab|------2---------3------------|---2-----------3-----------|---------------| 
Eb|---0---------------------------0-----------------------------------------| 
 
So Many years my drifting heart... 
 
eb|-------------------------------------------------------------------------| 
Bb|-------------------------------------------------------------------------| 
Gb|---2-/\/\------------5-/\/\----------5-----------------------------------| 
Db|---2-/\/\----5-/\/\--5-/\/\---5-/\/\-5---9--9--9--9--9--9--9-------------| 
Ab|---0---------5-/\/\--3--------5-/\/\-3---7--7--7--7--7--7--7-------------| 
Eb|-------------3----------------3-/\/\-------------------------------------| 
 
          Bar 
Solo     /\    /\                                         Pm............... 
eb|-----/--\--/--\----------------------------------------------------------| 
Bb|--Ha/----\/----\----/---5-/--13-\-12-\-10-\-8-\6-\4---|------------------| 
Gb|---4------------\--/----------------------------------|--2------------Ha-| 
Db|-----------------\/-----2-/--11-\-10-\--7-\-5-\3-\2---|----5-3-2----2--2-| 
Ab|------------------------------------------------------|----------5---5---| 
Eb|-------------------------------------------------------------------------| 
 
 
eb|-------------------------------------------------------------------------| 
Bb|-------------------------------------------------------14-16-17----------| 
Gb|---------------------------------13--15--16--13-15-16-----------16-15-13-| 
Db|-----------------------13-14--16-----------------------------------------| 
Ab|------------13-14--16----------------------------------------------------| 
Eb|--12-13--15--------------------------------------------------------------| 
 
 
                 /1\                  /1\                      1 
eb|-------------15----12/14\15-14-12-15----/1-----------------/-\--------15-| 
Bb|--14--16-16----------------------------15---17--17-15-12--14----15-17----| 
Gb|-------------------------------------------------------------------------| 
Db|-------------------------------------------------------------------------| 
Ab|-------------------------------------------------------------------------| 
Eb|-------------------------------------------------------------------------| 
 
 
eb|--14---------------------13-14-16--14-13---------------------------------| 
Bb|------17-15-19-17----17------------------16-14-13--17-16-----------------| 
Gb|------------------16-------------------------------------16-15-13--------| 
Db|-------------------------------------------------------------------16-15-| 
Ab|-------------------------------------------------------------------------| 
Eb|-------------------------------------------------------------------------| 
 
 
eb|-------------------------------------------------------------------------| 
Bb|-----------------------------------15-15--17-19-19\17/15-----15-----15-15| 
Gb|------------------------13--15-16-------------------------15----16-------| 
Db|------16-15--13------13--------------------------------------------------| 
Ab|--13-------------14------------------------------------------------------| 
Eb|-------------------------------------------------------------------------| 
 
 
                                                       /1\ 
eb|------------------------------------14-15------19--17---17---------------| 
Bb|-17--19------19--17-------16-19--19--------17--------------17-16--19--17-| 
Gb|---------16----------16--------------------------------------------------| 
Db|-------------------------------------------------------------------------| 
Ab|-------------------------------------------------------------------------| 
Eb|-------------------------------------------------------------------------| 
 
 
 
eb|-------------------------------------------------------------------------| 
Bb|-19----------------------------------------------------------------------| 
Gb|------16--16--15-\13-----------------------------------------------------| 
Db|-----------------------14--------------13-14-16---13--14--16-------------| 
Ab|----------------------------13-14--16--------------------------13--14-16-| 
Eb|-------------------------------------------------------------------------| 
 
 
 
eb|--------------------------------------------------------------19-19------| 
Bb|----------------------------------------------------------17--------17-19| 
Gb|-----------------------------------------------15-17--17-----------------| 
Db|------------------13-14---13-14-16---16-14-13----------------------------| 
Ab|--13------13--16---------------------------------------------------------| 
Eb|------14-----------------------------------------------------------------| 
                                                                           /1 
eb|--------------15--17--------------14--15--19--14--17--15--17--19-14-15-17| 
Bb|--17--15--17----------17--19--15-----------------------------------------| 
Gb|-------------------------------------------------------------------------| 
Db|-------------------------------------------------------------------------| 
Ab|-------------------------------------------------------------------------| 
Eb|-------------------------------------------------------------------------| 
 
 
_________________________________________________________________ 
 
 
 
Versão 2: 
 
******************************************************************* 
* STRATOVARIUS - THE ABYSS OF YOUR EYES (From the album: VISIONS) * 
******************************************************************* 
 Music & words by: Timo Tolkki/Timo Kotipelto 
 
Transcribed by: Niclas Buss 
Day tabbed: 25.1.2001 
Homepage: http://www.metalprovider.com/thedarktower 
Email: [email protected] 
 
Please mail me if you find any mistakes! 
 
----------------------------------------- 
 
 Tune Down 1/2 Step!  
 
  Intro 
E----------------------------------------------------------------------------------| 
B----------------------------------------------------------------------------------| 
G----------------------------------------------------------------------------------| 
D--5p4--2-4\--5p4--2-4\---7p5--4-4\--7p5--4-4\---5p4--2-4\--5p4--2-4\---7p5--4-4\--| 
A--2----2-2\--2----2-2\---3----3-3\--3----5-5\---2----2-2\--2----2-2\---3----3-3\-\| 
E---------------------------------------------------------------------------------\| 
 
E----------------------------------------------------------------------------------| 
B----------------------------------------------------------------------------------| 
G*---------------------------------------------------------------------------------| 
D*--5p4--2-------5p4--2-------/7p5--4-------7p5--4-------\5p4--2-------5p4--2------| 
A---2----2-------2----2-------/3----3--3-3--3----3--3-3--\2----2-------2----2------| 
E-----------0-0----------0-0--------------------------------------0-0----------0-0-| 
           pm..|        pm..|         pm..|        pm..|         pm..|        pm..| 
            ____________ ________________________ 
           |1.          |2.                      |  Riff 1 
E----------|------------|------------------------||--------------------------------| 
B----------|------------|------------------------||---5----------------------------| 
G----------|-----------*|------------------------||---------4-----7-----5----------| 
D-/7p5--4--|-------4~--*|-------7p5--4------4----||-----2-2---4h5---2h4---5-4-7~-5-| 
A-/3----5--|--3-3--3~---|--3-3--3----3--3-3---3--||--------------------------------| 
E----------|------------|------------------------||--------------------------------| 
             pm..|        pm..|        pm..| pm       pm..| 
 
E----------------------------------------------------------------------------------| 
B----/5---------------------------------/5--------------------------------/5-------| 
G-----------4-----7-----5----------------------4-----7-----5---------------------4-| 
D-4-----2-2---4h5---2h4---5-4-7~--5-4------2-2---4h5---2h4---5-4-7~--5-4-----2-2---| 
A----------------------------------------------------------------------------------| 
E----------------------------------------------------------------------------------| 
       pm..|                              pm..|                             pm..| 
 
                 (end Intro)   Verse 1 (With Clean Sound) 
E---------------------------||-----------------------------------------------------| 
B---------------------------||---------------------------3~~-----------------------| 
G-----7-----5---------------||-----------0~~----------0------------------0~~-------| 
D-4h5---2h4---5-4-7~--5-4---||--------4------------4------------------4------------| 
A---------------------------||-----2----------/-3------------------2-----------/-3-| 
E---------------------------||--0-----------------------------\-0------------------| 
 
                 Bridge 
E----------------------------------------------------------------------------------| 
B--------3~~---|-------------------------------------------------------------------| 
G-----0--------|-------------------------------------------------------------------| 
D--4-----------|--9--9------10---7-7/9-------9--9------10---7-7/9------\-5----5----| 
A--------------|--7--7-------7---7-7---------7--7-------7---7-7--------\-3--3-3--3-| 
E-----------------------0-0-------------0-0--------0-0-------------0-0-------------| 
                       pm...|          pm..|      pm..|           pm..|    pm   pm 
 
E----------------------------------------------------------------------------------| 
B----------------------------------------------------------------------------------| 
G----------------------------------------------------------------------------------| 
D-4--/5~---5----5----4-/-7~---9--9------10---7-7/9-------9--9------10---7-7/9------| 
A-3---3~---3--3-3--3-3-/-5~---7--7-------7---7-7---------7--7-------7---7-7--------| 
E-----------------------------------0-0-------------0-0--------0-0-------------0-0-| 
             pm   pm              pm...|           pm..|      pm..|           pm..| 
 
E----------------------------------------------------------------------------------| 
B----------------------------------------------------------------------------------| 
G-----------------------------------------\-2~-----4~---------------5~-----7~------| 
D-\-5----5----4--/5~---5----5----4-/-7~---\-2~-----5~------5\4/5----5~-----7~------| 
A-\-3--3-3--3-3---3~---3--3-3--3-3-/-5~---\-0~-----2~--2-2----------3~-----5~------| 
E----------------------------------------------------------------------------------| 
      pm   pm            pm   pm                      pm..| 
 
   Chorus 
E----------------------------------------------------------------------------------| 
B----------------------------------------------------------------------------------| 
G*---------------------------------------------------------------------------------| 
D*--5p4--2-------5p4--2-------/-7p5--4-------7p5--4--------5p4--2-------5p4--2-----| 
A---2----2-------2----2-------/-3----3--3-3--3----3--3-3-\-2----2-------2----2-----| 
E-----------0-0----------0-0---------------------------------------0-0----------0-0| 
           pm..|        pm..|          pm..|        pm..|         pm..|        pm..| 
                  ___________________ _______________ 
                 |1.                 |2.             | 
E----------------|-------------------|---------------||----------------------------| 
B----------------|-------------------|---------------||----------|-----------|-----| 
G----------------|------------------*|---------------||--Riff-1--|--Verse-2--|--Bri| 
D-/-7p5--4-------|--7p5--4------4---*|--7p5--4-------||----------|-----------|-----| 
A-/-3----3--3-3--|--3----3--3-3-3-3--|--3----3--3-3--||----------|-----------|-----| 
E----------------|-------------------|---------------||----------------------------| 
           pm..|           pm..|               pm..| 
 
                   Interlude 
E----------------------------------------------------------------------------------| 
B-----|----------|-----------------------------------------------------------------| 
Gdge--|--Chorus--|--2-----5-----5--/--7----------7---------------------------------| 
D-----|----------|--2-----3-----5--/--7-----3----7----3----------------------------| 
A-----|----------|--0-----0-----3--/--5-----3----5----3---/-7--7--7--7--7--7--7--7-| 
E-------------------------------------------1---------1----------------------------| 
                                                         pm........................ 
                                      Guitar Solo 
E----------------------------------------------------------------------------------| 
B-----------------------------------|--<2.5>-\\\\---------------13--12--10~--------| 
G-----------------------------------|-----------\\\\------///9---------------12-10-| 
D-----------------------------------|--------------\\\---//------------------------| 
A-7-7-7-7-7-7-7-7-7-7-7-7-7-7-7-7---|----------------\\\---------------------------| 
E----------------------------------------------------------------------------------| 
 .................................| 
 
E----------------------------------------------------------------------------------| 
B-------------------------------------------------12-------------------------------| 
G-9~---------------------------/-9b(10)r9~~----------------------------------------| 
D-----\-12-10-9-10-12-10-9--------------------\-9-----9-\--------------------12-14-| 
A--------------------------12------------------------------12-14-15-12-14-15-------| 
E----------------------------------------------------------------------------------| 
             pm            pm 
 
E-------------------------------------------------13-15-17~~--17p15p13h15p13-------| 
B-------------------------------13-15-17-13-15-17----------------------------17p15p| 
G-------------12-14-16-12-14-16----------------------------------------------------| 
D-15-12-14-15----------------------------------------------------------------------| 
A----------------------------------------------------------------------------------| 
E----------------------------------------------------------------------------------| 
 
E---------13h15--12h13p12----------------12h13h15p13p12h13p12-------------------13p| 
B13h15p17-----------------15p13p12h13h15----------------------15p13p12\10h12h13----| 
G----------------------------------------------------------------------------------| 
D----------------------------------------------------------------------------------| 
A----------------------------------------------------------------------------------| 
E----------------------------------------------------------------------------------| 
 
E12p10----------------10-12-13-12-10------------------------------------10-12-13-12| 
B------13-12-10-12-13----------------13-12-10-9-10-9---------9-10-12/13------------| 
G----------------------------------------------------10-9-10-----------------------| 
D----------------------------------------------------------------------------------| 
A----------------------------------------------------------------------------------| 
E----------------------------------------------------------------------------------| 
 
E-10-12~~--------------------------------------------------------------------------| 
B----------------------------------------------------------------------15-17-19-15-| 
G-------------------14-16-17-16-14----------------14-16-17-16-14-16-17-------------| 
D---------\14-15-18----------------18-15-14-15-17----------------------------------| 
A----------------------------------------------------------------------------------| 
E----------------------------------------------------------------------------------| 
 
E-------15-17-19-17-15/17\15-------------------------------------------------------| 
B-17-19----------------------19-17-15-19-17-15-------------------------------------| 
G----------------------------------------------17-16-14-17-16-14----------------14-| 
D----------------------------------------------------------------17-16-14-16-17----| 
A----------------------------------------------------------------------------------| 
E----------------------------------------------------------------------------------| 
 
E------------------------------------------15-17-19~~---\\\T.bar-------------------| 
B---------------------------------15-17-19----------------\\\\-dive---|------------| 
G-16~--14----------------14-16-17----------------------------\\\------|---Chorus---| 
D---------17-16-14-16-17---------------------------------------\\\\---|------------| 
A---------------------------------------------------------------------|------------| 
E----------------------------------------------------------------------------------| 
 
E----------------------------|| 
B----------------------------|| 
G--Repeat-Chorus-until-end---|| end 
D------with-Riff-1-----------|| 
A----------------------------|| 
E----------------------------|| 
 
-------------------------------------------------------------------------------------- 
 
  Rhythm Guitar during Guitar Solo                        x4 
E------------------------------------------------------------|| 
B------------------------------------------------------------|| 
G*--5p4--2-------5p4--2-------/-7p5--4--------7p5---4-------*|| end 
D*--2----2-------2----2-------/-3----5---3-3--3-----3--3-3--*|| 
A-----------0-0----------0-0---------------------------------|| 
E------------------------------------------------------------|| 
           pm..|        pm..|           pm..|         pm..| 
 
-------------------------------------------------------------------------------------- 
 
======================= 
=TABLATURE EXPLANATION= 
======================= 
 
A.H. = Artificial harmonic 
 
<<<< = Volume swell effect 
 
>>>> = Volume decrease effect 
 
pm..| = Palm mute 
 
h = hammer on 
 
p = pull off 
 
/ = slide up 
 
\ = slide down 
 
~ = Vibrato 
 
b() = Bend 
 
x\ = Pick slide 
 
-------- 
-------- 
---12--- = Tremolo pick 
----/--- 
----/--- 
----/--- 
 
---.--- 
--12--- = Staccato 
------- 
------- 
------- 
 
|     | 
|     | 
|*   *| = repeat from * to * 
|*   *|  
|     | 
 
*********************************************************************************************** 
*********************************************************************************************** 
 
LYRICS: 
******************************************************* 
 
I feel like I'm drowning 
Trying to catch my breath 
Don't know what is happening 
There's no sense of time 
 
Deep underneath my skin 
Feeling the pain within 
Hear my cry 
I feel drawn the dream towards  
You can't resist 
I don't know why 
 
My life is changing  
I cannot recall 
 
Where I've been you before 
The abyss of your eyes 
Meaning so much more 
Am I losing my mind 
 
The sun isn't shining 
But your eyes light my way 
I've found what I've been searching for 
My love won't go astray 
 
Deep underneath my skin 
Feeling the pain within 
Hear my cry 
I feel drawn the dream towards  
You can't resist 
I don't know why 
 
My life is changing  
I cannot recall 
 
Where I've been you before 
The abyss of your eyes 
Meaning so much more 
Am I losing my mind 
 
So many years 
My drifting heart 
Has wandered around 
Don't turn on me please 
Won't you stay  
By my side 
 
Where I've been you before 
The abyss of your eyes 
Meaning so much more 
Am I losing my mind 
 
Where I've been you before 
The abyss of your eyes 
Meaning so much more 
Am I losing my mind 
 
 
_______________________________________________________ 
Contribuição: Natan Macedo A. da Fonseca([email protected]) 

		  

See also:

tabs HIM - In Joy And Sorrow tabs Nightwish - Feel for You tabs Stratovarius - Destiny tabs Nightwish - Wish I Had An Angel tabs HIM - Wicked Game tabs HIM - Rip out the wings of the buterflay - intro
e-chords

Other versions:

tabs Stratovarius - The Abyss Of Yours Eyes
auto scroll beats size up size down change color hide chords drawings
tab show chords e-chords YouTube Clip e-chords hide all tabs e-chords go to top tab

share