Stratovarius

I Walk to My Own Song

Stratovarius

tabs Expert expert

by  GUIGRAZ

save to print version add songbook text version e-mail correct tuner
chordsukulelecavacokeyboardtabbassdrumsharmonicaflute Guitar Pro
close

there isn't a video lesson for this song

chords

I Walk to My Own Song

	  		 Tune Down 1/2 Step!  
 
  Keyboard-riff arranged for guitar:        x2   Dist.Guitar enters at (0:05) 
E----0h7h12h19-0h7h12h19-0h7h12h19-0h7h12h19----------------------------------------| 
B------------T---------T---------T---------T---|------------------------------------| 
G*--------------------------------------------*|--9--9------9-------9---------------| 
D*--------------------------------------------*|--9--9------9-------9---------------| 
A----------------------------------------------|--7--7--7-7-7-7-7-7-7-7-7-7-7-9-10~-| 
E-----------------------------------------------------------------------------------| 
                                                       pm..| pm....| pm....| 
 
E-----------------------------------------------------------------------------------| 
B-----------------------------------------------------------------------------------| 
G--7--7------7-------7-------7---7~-/-9--9~-----9-------9---------------\-5--5~-----| 
D--7--7------7-------7-------7---7~-/-9--9~-----9-------9---------------\-5--5~-----| 
A--5--5--5-5-5-5-5-5-5-5-5-5-5-5-5~-/-7--7~-7-7-7-7-7-7-7-7-7-7-7-9-10~-\-3--3~--3-3| 
E-----------------------------------------------------------------------------------| 
        pm..| pm....| pm....| pm           pm..| pm....| pm....|                pm..| 
 
E-----------------------------------------------------------------------------------| 
B-----------------------|-----------------------------------------------------------| 
G-5---------------------|*--9--9~------9-------9----------------7--7~------7-------7| 
D-5-----/7~-5-5-4-4-5~--|*--9--9~------9-------9----------------7--7~------7-------7| 
A-3-3-3-----------------|---7--7~--7-7-7-7-7-7-7-7-7-7-7-9-10~--5--5~--5-5-5-5-5-5-5| 
E-----------------------------------------------------------------------------------| 
   pm..|                          pm..| pm....| pm....|               pm..| pm....| 
                                                                  __________________ 
                                                                 |1. 
E----------------------------------------------------------------|------------------| 
B----------------------------------------------------------------|------------------| 
G-------7---7~-/-9--9~-----9-------9----------------\5--5~-----5-|------------------| 
D-------7---7~-/-9--9~-----9-------9----------------\5--5~-----5-|-----/7~-7-5-5-4-4| 
A-5-5-5-5-5-5~-/-7--7~-7-7-7-7-7-7-7-7-7-7-7-9-10~--\3--3~-3-3-3-|-3-3--------------| 
E----------------------------------------------------------------|------------------| 
 pm....| pm           pm..| pm....| pm....|               pm..|   pm..| 
 ______ _________________________________ 
       |2.                               |  Verse 1 
E------|---------------------------------||-----------------------------------------| 
B------|---------------------------------||-----------------------------------------| 
G-----*|--------------------------9~~----||---9~-----------------------------9~-----| 
D-5~--*|-----/9~-9-7-7------------9~~----||---9~-------------------------9p7-9~-----| 
A------|-3-3-----------10-10-9-9--7~~----||---7~-7-7-7-7-7-7-7-7-7-7-7-7-7-7-7~-7-7-| 
E------|---------------------------------||-----------------------------------------| 
        pm..|                                   pm......................|      pm... 
 
E-----------------------------------------------------------------------------------| 
B-----------------------------------------------------------------------------------| 
G---------------------9-\-7-7~-------------------------7-\-5-5~---------5-\-4-------| 
D---------------------9-\-7-7~-------------------------7-\-5-5~---------5-\-4-------| 
A-7-7-7-7-7-7-7-7-7-7-7-\-5-5~-5-5-5-5-5-5-5-5-5-5-5-5-5-\-3-3~-3-3-3-3-3-\-2~-2-2-2| 
E-----------------------------------------------------------------------------------| 
 ....................|        pm......................|        pm......|      pm.... 
 
E-----------------------------------------------------------------------------------| 
B-----------------------------------------------------------------------------------| 
G--------4-/-9~------------------------------9~-------------------------9-\-7-7~----| 
D--------4-/-9~--------------------------9p7-9~-------------------------9-\-7-7~----| 
A-2-2-2--2-/-7~--7-7-7-7-7-7-7-7-7-7-7-7-7-7-7~-7-7-7-7-7-7-7-7-7-7-7-7-7-\-5-5~-5-5| 
E-----------------------------------------------------------------------------------| 
 ......|        pm......................|      pm......................|        pm.. 
 
                                                               Bridge 
E-----------------------------------------------------------------------------------| 
B------------------------------------------------------------|----------------------| 
G---------------------7-\-5-5~---------5-/-7-7~--------------|--------7----5----9---| 
D---------------------7-\-5-5~---------5-/-7-7~--------------|---5----7----5----9---| 
A-5-5-5-5-5-5-5-5-5-5-5-\-3-3~-3-3-3-3-3-/-5-5~-5-5-5-5-5-5--|---5----5----3----7---| 
E----------------------------------------------------------------3------------------| 
 ....................|        pm......|        pm..........| 
 
E--------3--------------------------------------------------------------------------| 
B--------3--------------------------------------------------------------------------| 
G--7-----4----7----2--------4-----4---4------4-----4---4------4-----4---------------| 
D--7-----5----7----2--------4-----4---4------4-----4---4------4-----4---4h5p4-------| 
A--5-----5----5----0----2-2-2-2-2-2-2-2--2-2-2-2-2-2-2-2--2-2-2-2-2-2-2-------7-6-3\| 
E--------3--------------------------------------------------------------------------| 
                       pm..| pm..| pm   pm..| pm..| pm   pm..| pm..| pm      pm..... 
 
             Chorus 
E-----------------------------------------------------------------------------------| 
B----------|------------------------------------------------------------------------| 
G----------|*--9--9~------9-------9----------------7--7~------7-------7-------7---7~| 
D----------|*--9--9~------9-------9----------------7--7~------7-------7-------7---7~| 
A\2--------|---7--7~--7-7-7-7-7-7-7-7-7-7-7-9-10~--5--5~--5-5-5-5-5-5-5-5-5-5-5-5-5~| 
E---5-3-2---------------------------------------------------------------------------| 
 ........|           pm..| pm....| pm....|               pm..| pm....| pm....| pm 
                                                         ____________________ ______ 
                                                        |1.                  |2. 
E-------------------------------------------------------|--------------------|------| 
B-------------------------------------------------------|--------------------|------| 
G-/-9--9~-----9-------9----------------\5--5~-----5-----|-------------------*|------| 
D-/-9--9~-----9-------9----------------\5--5~-----5-----|-/7~-7-5-5-4-4-5~--*|-/9~-9| 
A-/-7--7~-7-7-7-7-7-7-7-7-7-7-7-9-10~--\3--3~-3-3-3-3-3-|--------------------|------| 
E-------------------------------------------------------|--------------------|------| 
         pm..| pm....| pm....|               pm..| pm..| 
 _______________________ 
                        |                                          Guitar Solo 
E-----------------------||----------------------------------------------------------| 
B-----------------------||-------------|------------|------------|--19b(20)~--r19---| 
G----------------9~~----||---Verse-2---|---Bridge---|---Chorus---|----------------16| 
D-7-7------------9~~----||-------------|------------|------------|------------------| 
A-----10-10-9-9--7~~----||-------------|------------|------------|------------------| 
E-----------------------||----------------------------------------------------------| 
 
                                                                        Two Guitars. 
E-----------------------------------------------------------------------------------| 
B------13b(15)~--r13------------------------------------------------------10---10---| 
G~--12---------------11~-----14b(16)~--r14-12~---11---------------------9-11-9-11-9-| 
D-------------------------14------------------------14~--12-10~--\7-9~--9----9----9-| 
A-----------------------------------------------------------------------------------| 
E-----------------------------------------------------------------------------------| 
 
 ........................................................................| 
E-----------------------------------------------------------------------------------| 
B-10---10-\-8-10-8-10-12-10~----10---10---10---10-/-12-\-10-8-/13-12-10~-------12---| 
G-11-9-11-\-9-11-9-11-12-11~--9-11-9-11-9-11-9-11-/-12-\-11-9-/14-12-11~----11----11| 
D----9------------------------9----9----9----9--------------------------------------| 
A-----------------------------------------------------------------------------------| 
E-----------------------------------------------------------------------------------| 
             pm.........|                               pm..........| 
 
E--------------------15p14----------------15p14-------------15-19-17-15----15-------| 
B-----13----15-------------15p12----15\12-------15----15/17-------------19----19-17-| 
G/-12----12----14\12-------------14----------------16-------------------------------| 
D-----------------------------------------------------------------------------------| 
A-----------------------------------------------------------------------------------| 
E-----------------------------------------------------------------------------------| 
 
E--------/15p12h15p12----14p12h14p12----15p12h15p12----17p12h17p12----15p12----14p12| 
B-15-17~--------------12-------------12-------------12-------------12-------12------| 
G-----------------------------------------------------------------------------------| 
D-----------------------------------------------------------------------------------| 
A-----------------------------------------------------------------------------------| 
E-----------------------------------------------------------------------------------| 
 
E-----------------------------------------------------------------------------------| 
B-12h15p12-------15p12--------------------------------------------------------------| 
G----------14p12-------14p12h14p12-------14p12h14p12-------14p12h14p12-------14b(16)| 
D----------------------------------14p12-------------14p12-------------14p12--------| 
A-----------------------------------------------------------------------------------| 
E-----------------------------------------------------------------------------------| 
 
E------/12-11-10-9------------------------------------------------------------------| 
B------------------13-12-11-10-------------13-12-11-10------------------------------| 
G~~-r--------------------------13-12-11-10-------------13-12-11-10-------------13-12| 
D------------------------------------------------------------------14-13-12-11------| 
A-----------------------------------------------------------------------------------| 
E-----------------------------------------------------------------------------------| 
 
E------------------------------------------------15-14-13-12------------------------| 
B------------------------------------------------------------16-15-14-13------------| 
G-11-10------------------------------------------------------------------16-15-14-13| 
D-------14-13-12-11-----------------------------------------------------------------| 
A-------------------15-14-13-12-----------------------------------------------------| 
E-------------------------------16-15-14-13\12--------------------------------------| 
 
E-----------------------------------------------------------------------------------| 
B-16-15-14-13-----------------------------------------------------------------------| 
G-------------16-15-14-13-------------/17-16-15-14----------------------------------| 
D-------------------------17-16-15-14--------------17-16-14-------------------------| 
A-----------------------------------------------------------17-15-14\12-------------| 
E-----------------------------------------------------------------------15-14-12\10-| 
 
E------------------------------------------------------------------14-15-17---------| 
B------------------------------------------------13-15-17-13-15-17----------13-15-17| 
G------------------------------12-14-16-12-14-16------------------------------------| 
D------------12-14-16-12-14-16------------------------------------------------------| 
A-/-12-14-15------------------------------------------------------------------------| 
E-----------------------------------------------------------------------------------| 
 
E-14-15-17/19~-19-20-17-19-15-17-14-15--/-14--/--/--/--/--/-15-17-15-17-14-15--/-14-| 
B---------------/--/--/--/--/--/--/--/-17--/-15-17-13-15-12--/--/--/--/--/--/-17--/-| 
G---------------/--/--/--/--/--/--/--/--/--/--/--/--/--/--/--/--/--/--/--/--/--/--/-| 
D---------------/--/--/--/--/--/--/--/--/--/--/--/--/--/--/--/--/--/--/--/--/--/--/-| 
A-----------------------------------------------------------------------------------| 
E-----------------------------------------------------------------------------------| 
 
E--/--/--/--/----/--/--/--/--/--/--/--/----/--/--/--/-------------------------------| 
B-15-17-13-15-/-15-17-13-15-12-13-10-12-/-12-13-10-12---/--/--/--/----/--/--/--/----| 
G--/--/--/--/----/--/--/--/--/--/--/--/----/--/--/--/--12-14-11-12-/-12-14-11-12--\-| 
D--/--/--/--/----/--/--/--/--/--/--/--/----/--/--/--/---/--/--/--/----/--/--/--/----| 
A-------------------------------------------------------/--/--/--/----/--/--/--/----| 
E-----------------------------------------------------------------------------------| 
 
                                                                              Chorus 
E-----------------------------------------------------------------------------------| 
B---------------------------------------------------------------------------|-------| 
G--\9~~-----5~----------------5~--------------------------------------------|*--9--9| 
D--/9~------5~-------2~-------5~----------------------------------5-5-5-5---|*--9--9| 
A--/7~------3~-------2~-------3~--------3-3-3-3-3-3-3-3-3-3-3-3-3-3-3-3-3---|---7--7| 
E-----------3~-------0~-------3~------------------------------------------------7--7| 
                                       pm........................| 
  (2) 
E-----------------------------------------------------------------------------------| 
B-----------------------------------------------------------------------------------| 
G~------9-------9-----------------7--7~------7-------7-------7---7~--/-9--9~------9-| 
D~------9-------9-----------------7--7~------7-------7-------7---7~--/-9--9~------9-| 
A~--7-7-7-7-7-7-7-7-7-7-7-9-10~---5--5~--5-5-5-5-5-5-7-5-5-5-5-5-5~--/-7--7~--7-7-7-| 
E~--7-7-7-7-7-7-7-7-7-7-----------5--5~--5-5-5-5-5-5-5-5-5-5-5-5-5~--/-7--7~--7-7-7-| 
   pm..| pm....| pm....|                pm..| pm....| pm....| pm             pm..| 
                                            _____________________ __________________ 
                                           |1.3.5*               |2.4. 
E------------------------------------------|---------------------|------------------| 
B------------------------------------------|---------------------|------------------| 
G-------9----------------\5--5~-----5------|--------------------*|------------------| 
D-------9----------------\5--5~-----5------|-/-7~-7-5-5-4-4-5~--*|-/-9~-9-7-7-------| 
A-7-7-7-7-7-7-7-7-9-10~--\3--3~-3-3-3-3-3--|---------------------|------------10-10-| 
E-7-7-7-7-7-7-7----------\3--3~-3-3-3-3-3--|---------------------|------------------| 
 pm....| pm....|               pm..| pm..|     *=fade out the 5th time 
 _______ 
        | 
E-------|| 
B-------|| 
G-------|| end 
D-------|| 
A-9-9---|| 
E-------|| 
 
-------------------------------------------------------------------------------------- 
 
  Rhythm Guitar during Guitar Solo 
E-----------------------------------------------------------------------------------| 
B-----------------------------------------------------------------------------------| 
G*---9-9-------------9~------------9-9-------------9~------------\-5-5------------5~| 
D*---9-9-7-9\-7\-10\-9~------------9-9-7-9\-7\-10\-9~------------\-5-5-4-5\-4\-7\-5~| 
A----7-7-7-7\-7\-7\--7~--77777777--7-7-7-7\-7\-7\--7~--77777777--\-3-3-3-3\-3\-3\-3~| 
E-----------------------------------------------------------------------------------| 
                        pm.......|                    pm.......| 
                                        x4 
E------------------------------------------|| 
B------------------------------------------|| 
G------------5-5------------5~------------*|| end 
D------------5-5-4-5\-4\-7\-5~------------*|| 
A--33333333--3-3-3-3\-3\-3\-3~--33333333---|| 
E------------------------------------------|| 
  pm.......|                   pm.......| 
 
-------------------------------------------------------------------------------------- 
 
======================= 
=TABLATURE EXPLANATION= 
======================= 
 
A.H. = Artificial harmonic 
 
<<<< = Volume swell effect 
 
>>>> = Volume decrease effect 
 
pm..| = Palm mute 
 
h = hammer on 
 
p = pull off 
 
/ = slide up 
 
\ = slide down 
 
~ = Vibrato 
 
b() = Bend 
 
x\ = Pick slide 
 
-------- 
-------- 
---12--- = Tremolo pick 
----/--- 
----/--- 
----/--- 
 
---.--- 
--12--- = Staccato 
------- 
------- 
------- 
 
|     | 
|     | 
|*   *| = repeat from * to * 
|*   *|  
|     | 
 
LYRICS: 
**************************************************** 
 
I'm walking the street and I hear what you say 
Advicing me telling me how to play 
I know your name it's called Mr.Mean 
One thing I've learned you don't know beans 
 
Hight I fly 
I touch the sky 
Far above the frozen minds 
You can't kill my dreams 
You can't kill my spirit 
I was born to be free 
 
I WALK TO MY OWN SONG 
EVERY DAY THE POWER GROWS STRONGER IN ME 
I WALK TO MY OWN SONG 
HEAD UP HIGH 
THE MASTER OF MY OWN DESTINY 
 
You think you know what is better for me 
Holding me lectures of how I should be 
Shrugging my shoulders I leave you behind 
Any wway I look at it you are blind 
 
Hight I fly 
I touch the sky 
Far above the frozen minds 
You can't kill my dreams 
You can't kill my spirit 
I was born to be free 
 
I WALK TO MY OWN SONG 
EVERY DAY THE POWER GROWS STRONGER IN ME 
I WALK TO MY OWN SONG 
HEAD UP HIGH 
THE MASTER OF MY OWN DESTINY 
 
I WALK TO MY OWN SONG 
EVERY DAY THE POWER GROWS STRONGER IN ME 
I WALK TO MY OWN SONG 
HEAD UP HIGH 
THE MASTER OF MY OWN DESTINY 
 
I WALK TO MY OWN SONG 
EVERY DAY THE POWER GROWS STRONGER IN ME 
I WALK TO MY OWN SONG 
HEAD UP HIGH 
THE MASTER OF MY OWN DESTINY 

		  

See also:

tabs HIM - In Joy And Sorrow tabs Nightwish - Feel for You tabs Stratovarius - Destiny tabs Nightwish - Wish I Had An Angel tabs HIM - Wicked Game tabs HIM - Rip out the wings of the buterflay - intro
e-chords

Other versions:

tabs Stratovarius - I Walk to My Own Song
auto scroll beats size up size down change color hide chords drawings
tab show chords e-chords YouTube Clip e-chords hide all tabs e-chords go to top tab

share