Stratovarius

Find Your Own Voice

Stratovarius

tabs Easy easy

by  ALEX-GUITAR

save to print version add songbook text version e-mail correct tuner
chordsukulelecavacokeyboardtabbassdrumsharmonicaflute Guitar Pro
close

there isn't a video lesson for this song

chords

Find Your Own Voice

	  		Intro: 
|----------------------------------------------------| 
|----------------------------------------------------| 
|----------------------------------------------------| 
|---------7-------7-------7-------7-------7-----7-10-| 
|-0-0-0-0---0-0-0---0-0-0---0-0-0---0-0-0---0-0------| 
|----------------------------------------------------| 
  * * * *   * * *   * * *   * * *   * * *   * * 
 
|----------------------------------------------------| 
|----------------------------------------------------| 
|----------------------------------------------------| 
|---------9-------9-------9-------9-------9-----9-12-| 
|-0-0-0-0---0-0-0---0-0-0---0-0-0---0-0-0---0-0------| 
|----------------------------------------------------| 
  * * * *   * * *   * * *   * * *   * * *   * *, 
 
|----------------------------------------------------------| 
|----------------------------------------------------------| 
|----------------------------------------------------------| 
|---------10-------10-------10-------10-------10-----10-14-| 
|-0-0-0-0----0-0-0----0-0-0----0-0-0----0-0-0----0-0-------| 
|----------------------------------------------------------| 
  * * * *    * * *    * * *    * * *    * * *    * * 
 
|-------------------------------------------------------------| 
|-------------------------------------------------------------| 
|-------------------------------------------------------------| 
|---------12-------12-------15-15-12-12-14-14----12-----------| 
|-0-0-0-0----0-0-0----0-0-0-------------------15----15-14-15--| 
|-------------------------------------------------------------| 
  * * * *    * * *    * * * ** ** ** ** ** ** ** ** ** ** **       
 
Pre-Verse 1 
|--------------------------------------------------------------------| 
|--------------------------------------------------------------------| 
|-5------5------7------7------8------8-------------------------------| 
|-3------3------5------5------6------6-------------------------------| 
|--------------------------------------------------------------------| 
|--------------------------------------------------------------------| 
 
Verse 1 
|----------------------------------------------------------------------------------------| 
|----------------------------------------------------------------------------------------| 
|----------------------------------------------------------------------------------------| 
|---------10-10-10-10-10-10-10-10-10-10-10-10-10-10--------------7-9-7-9-10-12-10-12-14--| 
|-7---7---8--8--8--8--8--8--8--8--8--8--8--8---8--8---10-10-8-10-------------------------| 
|-5---5----------------------------------------------------------------------------------| 
             *  *     *  *     *  *     *  *    *  *  ** ** * ** * * * * ** ** ** ** **  
 
|----------------------------------------------------------------------------------------------------------------------| 
|----------------------------------------------------------------------------------------------------------------------| 
|----------------------------------------------------------------------------------------------------------------------| 
|------10-10-12-12-14-14-15-15-14-14--10-10-10-10-10-10-10-10-10-10-10-10-10-10--------------7-9-7-9-10-12-10-12-14-15-| 
|-7---7-------------------------------8--8--8--8--8--8--8--8--8--8--8--8---8--8---10-10-8-10---------------------------| 
|-5---5----------------------------------------------------------------------------------------------------------------| 
       ** ** ** ** ** ** ** ** ** **     *  *     *  *     *  *     *  *    *  *  ** ** * ** * * * * ** ** ** ** ** 
 
Pre-Chorus: 
|----------------------------------------------------| 
|----------------------------------------------------| 
|-7------8------9--7--5------------------------------| 
|-5------6------7--5--3---7----5---------------------| 
|-------------------------5----3----5----------------| 
|-----------------------------------3----------------| 
 
Chorus: 
|--------------------------------------------------------------------------------------------------| 
|--------------------------------------------------------------------------------------------------| 
|-------5-----------7------------------------------4-----------7-----------9------------12---------| 
|-2-----3-----5-----5-----7-----------10-----5-----2-----5-----5-----7-----7-----10-----10-----12--| 
|-0-----------3-----------5-----8-----8------3-----------3-----------5-----------8-------------10--| 
|-------------------------------6------------------------------------------------------------------| 
 
|-------------------------------------------------| 
|-------------------------------------------------| 
|-------------------------------------------------| 
|-9-9-9-9--7--9-9-9-9--10--9-9-9-9--7--9-9-9-9----| 
|-7-7-7-7--5--7-7-7-7--8---7-7-7-7--5--7-7-7-7----| 
|-------------------------------------------------| 
  * * *       * * *        * * *       * * *    
 
Solo: 
|--/---4-times---\---------------------------------------12-13-15-13-12----------------12-13-15-13-12\13/12-| 
|-13-12-10----10-12--13-12-10----10-12-13-12-10-12-13-15----------------15-13-12-13-15----------------------| 
|----------13-----------------13----------------------------------------------------------------------------| 
|-----------------------------------------------------------------------------------------------------------| 
|-----------------------------------------------------------------------------------------------------------| 
|-----------------------------------------------------------------------------------------------------------| 
 
|----------------12-13-15-13-12\13/12----------------10-13-12-10-13-12-10----------------10-13-12-10-13-12-10-| 
|-15-13-12-13-15----------------------15-13-12-13-15----------------------15-13-12-13-15----------------------| 
|-------------------------------------------------------------------------------------------------------------| 
|-------------------------------------------------------------------------------------------------------------| 
|-------------------------------------------------------------------------------------------------------------| 
|-------------------------------------------------------------------------------------------------------------| 
 
 
|-------------------10-13-12-10-13-12-10--------------------------------------------------------------------------------| 
|-10-12-13-10/12\10---------------------13-12-10-13-12-10-----------------10-12-13-12-10--------------------------------| 
|---------------------------------------------------------12-10-9-12-10-9----------------12-10-9-12-10-9----------------| 
|--------------------------------------------------------------------------------------------------------12-10-9-10-12--| 
|-----------------------------------------------------------------------------------------------------------------------| 
|-----------------------------------------------------------------------------------------------------------------------| 
 
|-------------------------------------------| 
|---------10-12-13-12-10--------------------| 
|-9-10-12----------------12-10-9-12-10-9----| 
|-------------------------------------------| 
|-------------------------------------------| 
|-------------------------------------------| 
 
 
|--------------------------------------------------------------------------------------------------| 
|-----------------------------------/17~//-(16)-15~/-----------------------------------------------| 
|-----------------------------------------------------(11-12)-14-12-11-----------------------------| 
|-/14b~--12------------------------------------------------------------14-12-11----------11-12-14--| 
|-----------15-14---------------------------------------------------------------14-12-14-----------| 
|-----------------15-12-10-8/Trem------------------------------------------------------------------| 
 
|-------------------------------------------------15-17-19~------------keyboard-solo-----------------| 
|----------------------------------------14-16-17--------------------/---------------\---------------| 
|-12-14-16-14-12----------------12-14-16--------------------------9-/-5---9---5---14--\-10---12--13--| 
|----------------16-14-12-14-16-----------------------------------9---5---9---5---14----10---12--13--| 
|-----------------------------------------------------------------7---3---7---3---12----8----10--11--| 
|----------------------------------------------------------------------------------------------------| 
 
then guitar+keyboard play: 
 
|-17-19-20-19-17----17-19-20-19-17----17-19-20-19-17----------------------------------------------| 
|----------------21----------------21-------------------------------------------------------------| 
|----------------------------------------------------14-16-17-16-14----14-16-17-16-14----14-16-17-| 
|-------------------------------------------------------------------18----------------18----------| 
|-------------------------------------------------------------------------------------------------| 
|-------------------------------------------------------------------------------------------------| 
 
|-------------------------------------------------------------------------------------------| 
|-------------------------------------------------------------------------------------------| 
|-14-16-17-16-14----------------14-16-17-16-14----------------14-16-17-(16-14)-14-16//------| 
|----------------17-16-14-16-17----------------17-16-14-16-17-------------------------------| 
|-------------------------------------------------------------------------------------------| 
|-------------------------------------------------------------------------------------------| repeat  2 times 
 
 
|-17-15-13-15-13-12-13-12-10-12-10-8-------------------------------------------------------------| 
|------------------------------------15-13-12-13-12-10-12-10-9-10-9-7----------------------------| 
|---------------------------------------------------------------------12-10-9-12-9-7-9-7-5-7-5-4-| 
|------------------------------------------------------------------------------------------------| 
|------------------------------------------------------------------------------------------------| 
|------------------------------------------------------------------------------------------------| 
 
|--------------------------------------------------------------------| 
|--------------------------------------------------------------------| 
|--------------------------------------------------------------------| 
|-then--3--2--0--2---------------------------------------------------| 
|--------------------------------------------------------------------| 
|--------------------------------------------------------------------| 
 
Chorus 
 
Intro 
 
Outro: 
 
|----------------------------------------------------------------13-15-17--20~-19--| 
|----------------------------------------------13-15-17-13-15-17-------------------| 
|----------------------------12-14-16-12-14-16-------------------------------------| 
|----------12-14-15-12-14-15-------------------------------------------------------| 
|-12-14-15-------------------------------------------------------------------------| 
|----------------------------------------------------------------------------------| 
 
|-17-15-13-------------------------------------------------------------| 
|----------17-15-13----------------------------------------------------| 
|-------------------15-14-12-------------------------------------------| 
|----------------------------15-14-12---------------------2-2-2-2------| 
|-------------------------------------15-13-12------------0-0-0-0------| 
|----------------------------------------------(15)-13-12--------------| 
 

		  

See also:

tabs Nightwish - Bless the child tabs HIM - Right Here In My Arms tabs Nightwish - Crimson Tide / Deep Blue Sea tabs Stratovarius - Infinity tabs HIM - It's All Tears (Unplugged) tabs Stratovarius - Distant Skies
e-chords

Other versions:

tabs Stratovarius - Find Your Own Voice
auto scroll beats size up size down change color hide chords drawings
tab show chords e-chords YouTube Clip e-chords hide all tabs e-chords go to top tab

share