Stone Sour

Last Of The Real

Stone Sour

tabs

by  ROBEPOIEL

save to print version add songbook text version e-mail correct tuner
chordsukulelecavacokeyboardtabbassdrumsharmonicaflute Guitar Pro
close

there isn't a video lesson for this song

chords

Last Of The Real

	  		


Intro.  

|-----------------------------------------------------------| 
|-----------------------------------------------------------| 
|-----------------------------------------------------------| 
|-------------------------2-2-0-2-0-2-2-0-2-0-2-2-----------| 
|-------------------------2-2-0-2-0-2-2-0-2-0-2-2-----------| 
|-9-9-9-9-8-8-8-8-7-7-7-7-2-2-0-2-0-2-2-0-2-0-2-2-----------| 
                              *   *     *   * 

|-----------------------------------------------------------| 
|-----------------------------------------------------------| 
|-----------------------------------------------------------| 
|-------------------------10-5-5-12-------------------------| 
|-------------------------10-5-5-12-------------------------| 
|-9-9-9-9-8-8-8-8-7-7-7-7-10-5-5-12-------------------------| 

___________________Repeat the above twice____________________ 


|------------------------------------------------------------| 
|------------------------------------------------------------| 
|------------------------------------------------------------| 
|-2---0-0-2---0-0-2---0-0-2----------------------------------| 
|-2---0-0-2---0-0-2---0-0-2----------------------------------| 
|-2---0-0-2---0-0-2---0-0-2---9-9-9-9-8-8-8-8----------------| 
      * *     * *     * * 

|------------------------------------------------------------| 
|------------------------------------------------------------| 
|------------------------------------------------------------| 
|-2-0-2-2---0-2-0-2-2---0-2-0-2-2---0-2-0-2-2----------------| 
|-2-0-2-2---0-2-0-2-2---0-2-0-2-2---0-2-0-2-2----------------| 
|-2-0-2-2---0-2-0-2-2---0-2-0-2-2---0-2-0-2-2-9-9-9-9-8-8-8-8| 


Pre Chorus. 


|------------------------------------------------------------| 
|------------------------------------------------------------| 
|-12-11---12-14---12-11---12-14------------------------------| 
|------------------------------------------------------------| 
|-10-9----10-12---10-9----10-12------------------------------| 
|------------------------------------------------------------| 


Chorus. 

|------------------------------------------------------------| 
|------------------------------------------------------------| 
|------------------------------------------------------------| 
|-2-2-5-2-0-2-2-5-2-0-2-2-------------------------10-5-5-12--| 
|-2-2-5-2-0-2-2-5-2-0-2-2-------------------------10-5-5-12--| 
|-2-2-5-2-0-2-2-5-2-0-2-2-9-9-9-9-8-8-8-8-7-7-7-7-10-5-5-12--| 

________________Repeat the above chorus twice_________________ 

Seconds verse. 


|------------------------------------------------------------| 
|------------------------------------------------------------| 
|------------------------------------------------------------| 
|-2-0-2-2---0-2-0-2-2---0-2-0-2-2---0-2-0-2-2----------------| 
|-2-0-2-2---0-2-0-2-2---0-2-0-2-2---0-2-0-2-2----------------| 
|-2-0-2-2---0-2-0-2-2---0-2-0-2-2---0-2-0-2-2-9-9-9-9-8-8-8-8| 


|------------------------------------------------------------| 
|------------------------------------------------------------| 
|------------------------------------------------------------| 
|-2-0-2-2---0-2-0-2-2---0-2-0-2-2---0-2-0-2-2----------------| 
|-2-0-2-2---0-2-0-2-2---0-2-0-2-2---0-2-0-2-2----------------| 
|-2-0-2-2---0-2-0-2-2---0-2-0-2-2---0-2-0-2-2-9-9-9-9-8-8-8-8| 


^^In the time span between the 0-2-0-2-2 parts there are natrual harmonics. 
For these, just dead note a B powerchord on the second fret.^^ 


Pre Chorus. 


|------------------------------------------------------------| 
|------------------------------------------------------------| 
|-12-11---12-14---12-11---12-14------------------------------| 
|------------------------------------------------------------| 
|-10-9----10-12---10-9----10-12------------------------------| 
|------------------------------------------------------------| 


Chorus. 

|------------------------------------------------------------| 
|------------------------------------------------------------| 
|------------------------------------------------------------| 
|-2-2-5-2-0-2-2-5-2-0-2-2-------------------------10-5-5-12--| 
|-2-2-5-2-0-2-2-5-2-0-2-2-------------------------10-5-5-12--| 
|-2-2-5-2-0-2-2-5-2-0-2-2-9-9-9-9-8-8-8-8-7-7-7-7-10-5-5-12--| 

_____________________Repeat the above twice___________________ 


Breakdown. 
|------------------------------------------------------------| 
|------------------------------------------------------------| 
|------------------------------------------------------------| 
|-------------------6---4-5-------------------6---4-5--------| 
|---4---3---2---1---6---4-5---4---3---2---1---6---4-5--------| 
|-0---0---0---0---0-6-0-4-5-0---0---0---0---0-6-0-4-5--------| 
  *   *   *   *   *   *     *   *   *   *   * 

|------------------------------------------------------------| 
|------------------------------------------------------------| 
|------------------------------------------------------------| 
|---------------------------------------------4-5------------| 
|---4/5\4----3/4\5----2/3\2----1/2\1----0h1p0-4-5------------| 
|-0--------0--------0--------0--------0-------4-5------------| 
  *        *        *        *        * 

|------------------------------------------------------------| 
|------------------------------------------------------------| 
|------------------------------------------------------------| 
|---------------------------------------------4-5------------| 
|---4/5\4----3/4\5----2/3\2----1/2\1----0h1p0-4-5------------| 
|-0--------0--------0--------0--------0-------4-5------------| 
  *        *        *        *        * 


After breakdown...thing. 


|------------------------------------------------------------| 
|------------------------------------------------------------| 
|----------------------------12-12-11-9-7--------------------| 
|-5-0-2-2-0-2-5-0-2-2-0-2-10---------------------------------| 
|-5-0-2-2-0-2-5-0-2-2-0-2-10-10-10-9--7-5--------------------| 
|-5-0-2-2-0-2-5-0-2-2-0-2-10---------------------------------| 



Chorus. 

|------------------------------------------------------------| 
|------------------------------------------------------------| 
|------------------------------------------------------------| 
|-2-2-5-2-0-2-2-5-2-0-2-2-------------------------10-5-5-12--| 
|-2-2-5-2-0-2-2-5-2-0-2-2-------------------------10-5-5-12--| 
|-2-2-5-2-0-2-2-5-2-0-2-2-9-9-9-9-8-8-8-8-7-7-7-7-10-5-5-12--| 

_____________________Repeat the above twice___________________ 

Ending. 


|-----------------------------------------------------------| 
|-----------------------------------------------------------| 
|-----------------------------------------------------------| 
|-2-2-0-2-0-2-2-0-2-0-2-2-----------------------------------| 
|-2-2-0-2-0-2-2-0-2-0-2-2-----------------------------------| 
|-2-2-0-2-0-2-2-0-2-0-2-2-9-9-9-9-8-8-8-8-7-7-7-7-----------| 

|-----------------------------------------------------------| 
|-----------------------------------------------------------| 
|-----------------------------------------------------------| 
|-2-2-0-2-0-2-2-0-2-0-2-2-----------------------------------| 
|-2-2-0-2-0-2-2-0-2-0-2-2-----------------------------------| 
|-2-2-0-2-0-2-2-0-2-0-2-2-9-9-9-9-8-8-8-8-7-7-7-7-----------| 

|-----------------------------------------------------------| 
|-----------------------------------------------------------| 
|-----------------------------------------------------------| 
|-2-2-0-2-0-2-2-0-2-0-2-2-----------------------------------| 
|-2-2-0-2-0-2-2-0-2-0-2-2-----------------------------------| 
|-2-2-0-2-0-2-2-0-2-0-2-2-9-9-9-9-8-8-8-8-7-7-7-7-----------| 

|-----------------------------------------------------------| 
|-----------------------------------------------------------| 
|-----------------------------------------------------------| 
|-2-2-0-2-0-2-2-0-2-0-2-2--------------------------2-0-2-2--| 
|-2-2-0-2-0-2-2-0-2-0-2-2--------------------------2-0-2-2--| 
|-2-2-0-2-0-2-2-0-2-0-2-2-9-9-9-9-8-8-8-8-7-7-7-7--2-0-2-2--| 
 
		  

Full key step upFull key step up
Half key step upHalf key step up
Half key step downHalf key step down
Full key step downFull key step down
hide glossary

See also:

tabs Gary Moore - Parisienne Walkways tabs Crazy Town - Buterfly tabs Velvet Underground - Heroin tabs Slash Snakepit - Godfather Theme tabs Lifehouse - Everything tabs Hoobastank - Disappear
e-chords

Other versions:

tabs Stone Sour - Last Of The Real
auto scroll beats size up size down change color hide chords drawings
tab show chords e-chords YouTube Clip e-chords hide all tabs e-chords go to top tab

share