Stone Sour

Influence Of A Drowsy God

Stone Sour

tabs

by  PAULLET3

save to print version add songbook text version e-mail correct tuner
chordsukulelecavacokeyboardtabbassdrumsharmonicaflute Guitar Pro
close

there isn't a video lesson for this song

chords

Influence Of A Drowsy God

	  		

Intro x4 
D|------------------------------| 
A|------------------------------| 
F|------------------------------| 
C|-------12*-------10-------9---| 
G|--7*------------------7*------| 
D|------------------------------| 

verse 1 (pay careful attention)x2 
D|--------------------------------------------------------------------| 
A|--------------------------------------------------------------------| 
F|--------------------------------------------------------------------| 
C|-9--9-------9------9--9-------9------7--7-------7------7--7-------7-| 
G|-7--7-------7------7--7-------7------9--9-------9------9--9-------9-| 
D|------0-0-0-------------0-0-0-------------0-0-0-------------0-0-0---| 

D|--------------------------------------------------------------------| 
A|--------------------------------------------------------------------| 
F|--------------------------------------------------------------------| 
C|-5--5-------5------5--5-------5------7--7-------7------7--7-------7-| 
G|-7--7-------7------7--7-------7------9--9-------9------9--9-------9-| 
D|------0-0-0-------------0-0-0-------------0-0-0-------------0-0-0---| 

(he does something but the audio is too jumbled to tell, so I just do this) 
D|-------------------------| 
A|-------------------------| 
F|-------------------------| 
C|-2-----------------------| 
G|---5-3-5-3-2-3-2---2-----| 
D|-----------------5---5-3-| 

Chorus (just held notes) 
D|-----------------------------------------------------------------| 
A|-----------------------------------------------------------------| 
F|-4------2--------------------4------2---------------------4------| 
C|-4------2------5------3------4------2------5------3---6---4------| 
G|-2------0------5------3------2------0------5------3---6---2------| 
D|---------------3------1--------------------3------1---4----------| 

D|-------------------------------------| 
A|-/17---------/17----p15--------------| 
F|-------/16---------------16----------| 
C|-----------------------------17--14~-| 
G|-------------------------------------| 
D|-------------------------------------| 

verse 2 (slight difference)x2 
D|-----------------------------------------------------------------------| 
A|-----------------------------------------------------------------------| 
F|-----------------------------------------------------------------------| 
C|-9--9-------9-------9--9-------9-------7--7-------7-------7--7-------7-| 
G|-7--7-------7-------7--7-------7-------9--9-------9-------9--9-------9-| 
D|------0-0-0----0-0-0-----0-0-0----0-0-0-----0-0-0----0-0-0-----0-0-0---| 

D|-------------------------------------------------------------------------| 
A|-------------------------------------------------------------------------| 
F|-------------------------------------------------------------------------| 
C|------5--5-------5------5--5-------5------7--7-------7------7--7-------7-| 
G|------7--7-------7------7--7-------7------9--9-------9------9--9-------9-| 
D|0-0-0------0-0-0---0-0-0-----0-0-0---0-0-0-----0-0-0---0-0-0-----0-0-0---| 

(again, not too sure exactly what he does here) 
D|-------------------------| 
A|-------------------------| 
F|-------------------------| 
C|-2-----------------------| 
G|---5-3-5-3-2-3-2---2-----| 
D|-----------------5---5-3-| 

Chorus 
D|-----------------------------------------------------------------| 
A|-----------------------------------------------------------------| 
F|-4------2--------------------4------2---------------------4------| 
C|-4------2------5------3------4------2------5------3---6---4------| 
G|-2------0------5------3------2------0------5------3---6---2------| 
D|---------------3------1--------------------3------1---4----------| 

D|------------| 
A|-17-15---15-| 
F|-------16---| 
C|------------| 
G|------------| 
D|------------| 

Pre-Solo (or whatever it's called :P) 
D|-17c--------------------| 
A|-15c----17c-17c-18c-17c-| 
F|--------17c-16c-19c-16c-| 
C|--------------------17c-| 
G|------------------------| 
D|------------------------| 

Solo Backing x16 
D|----------| 
A|----------| 
F|----------| 
C|-9--------| 
G|-7--------| 
D|----0-0-0-| 

Bridge x2 
D|------------------------------------------------------------------------| 
A|------------------------------------------------------------------------| 
F|------------------------------------------------------------------------| 
C|-9--------9--------10-------10-------7--------7-------9--------9--------| 
G|-7--------7--------12-------12-------9--------9-------7--------7--------| 
D|----0-0-0----0-0-0----0-0-0----0-0-0----0-0-0---0-0-0----0-0-0----0-0-0-| 

Chorus 
D|-----------------------------| 
A|-----------------------------| 
F|-4------2--------------------| 
C|-4------2------5------3------| 
G|-2------0------5------3------| 
D|---------------3------1------| 

D|-----------------------------------------------------------------------| 
A|-----------------------------------------------------------------------| 
F|-4----4----4----4----2----2----2----2----------------------------------| 
C|-4----4----4----4----2----2----2----2----5----5----5----5----3-----3---| 
G|-2-2222-2222-2222-2220-0000-0000-0000-0005----5----5----5----3-----3---| 
D|-----------------------------------------3-3333-3333-3333-3331--1111---| 

D|----------------| 
A|----------------| 
F|----------------| 
C|----6-6-6-6-6-6-| 
G|----6-6-6-6-6-6-| 
D|-1114-4-4-4-4-4-| 

Outro 
D|------------------| 
A|------------------| 
F|------------------| 
C|-9-9-----9-9------|x4 
G|-7-7-----7-7------| 
D|------0-0-----0-0-| 

D|--------------------------| 
A|------------17--17--------| 
F|------------19^-19^-------| 
C|-------------(21)(21)-----|x4 
G|-14-14--------------------| 
D|-12-12--0-0-----------0-0-| 

----------------------------------------------------------------------------- 
Solo 
D|------------------17p15--------------| 
A|-12h17p12h17c---17-----18p17p15h17~--| 
F|--------------16-16------------------| 
C|-------------------------------------| 
G|-------------------------------------| 
D|-------------------------------------| 

D|------------------------------12h13h17p13p12h13h15p13p12---------------| 
A|-12p10h12p10h12/15p13h15p13h15--------------------------15p13p12h13p12-| 
F|-----------------------------------------------------------------------| 
C|-----------------------------------------------------------------------| 
G|-----------------------------------------------------------------------| 
D|-----------------------------------------------------------------------| 

D|--------------------------------------------------------| 
A|------------------17------------------------------------| 
F|-14p12p11p12p14h16---16p14------------------------------| 
C|--------------------------17p16p14----------------------| 
G|----------------------------------17p15p14--------------| 
D|------------------------------------------17p15p14-12\\-| 

D|-15^~-p12-----------|-----------| 
A|--(17)--------------|-----------| 
F|----------14^~^-----|-----------| 
C|----------(16,16)--(x3)---------|(Sorry if this part is confusing. 
G|--------------------|----13^~^--| I really have no idea how to tab this. 
D|--------------------|----(14,14)| Just listen to the way it sounds.) 

D|----------------12---12--------------------17^----| 
A|----------------15^--15^---------17----------(19)-| 
F-------14-12------(17)-(17)--14/16--19-17-16-------| 
C|----14-----14-12----------------------------------| 
G|-/14----------------------------------------------| 
D|--------------------------------------------------| 

Good Luck! And remember to leave any comments for changes or suggestions. 
		  

See also:

tabs Gary Moore - Parisienne Walkways tabs Crazy Town - Buterfly tabs Velvet Underground - Heroin tabs Slash Snakepit - Godfather Theme tabs Lifehouse - Everything tabs Hoobastank - Disappear
e-chords

Other versions:

tabs Stone Sour - Influence Of A Drowsy God
auto scroll beats size up size down change color hide chords drawings
tab show chords e-chords YouTube Clip e-chords hide all tabs e-chords go to top tab

share