Stone Sour

Freeze Dry Seal

Stone Sour

tabs

by  VICTBORGES

save to print version add songbook text version e-mail correct tuner
chordsukulelecavacokeyboardtabbassdrumsharmonicaflute Guitar Pro
close

there isn't a video lesson for this song

chords

Freeze Dry Seal

	  		Intro 

|------------------------------------------------------------------| 
|------------------------------------------------------------------| 
|----------------------------------4-4-4-4-4-4-4-4-----------------| 
|--2-2-2-2-2-2-2-2-2-2-2-2-2-2-2-2-4-4-4-4-4-4-4-4-5-5-5-5-5-5-5-5-| 
|--2-2-2-2-2-2-2-2-2-2-2-2-2-2-2-2-2-2-2-2-2-2-2-2-5-5-5-5-5-5-5-5-| 
|--2-2-2-2-2-2-2-2-2-2-2-2-2-2-2-2-----------------3-3-3-3-3-3-3-3-| 2x 


Verse 

|------------------------------------------------------------| 
|------------------------------------------------------------| 
|------------------------------------------------------------| 
|--2-2-2----------2-2-2----------2-2-2----------2-2-2--------| 
|--2-2-2--5-4-----2-2-2--5-4-----2-2-2--5-4-----2-2-2--5-4-7-| 
|--2-2-2----------2-2-2------2---2-2-2----------2-2-2------7-| 4x 

Chorus 

|------------------------------------------------------------------| 
|------------------------------------------------------------------| 
|----------------------------------4-4-4-4-4-4-4-4-----------------| 
|--2-2-2-2-2-2-2-2-2-2-2-2-2-2-2-2-4-4-4-4-4-4-4-4-5-5-5-5-5-5-5-5-| 
|--2-2-2-2-2-2-2-2-2-2-2-2-2-2-2-2-2-2-2-2-2-2-2-2-5-5-5-5-5-5-5-5-| 
|--2-2-2-2-2-2-2-2-2-2-2-2-2-2-2-2-----------------3-3-3-3-3-3-3-3-| 2x 

Verse 

|------------------------------------------------------------| 
|------------------------------------------------------------| 
|------------------------------------------------------------| 
|--2-2-2----------2-2-2----------2-2-2----------2-2-2--------| 
|--2-2-2--5-4-----2-2-2--5-4-----2-2-2--5-4-----2-2-2--5-4-7-| 
|--2-2-2----------2-2-2------2---2-2-2----------2-2-2------7-| 4x 

at the 4th play 

|------------------------------------------------------------| 
|------------------------------------------------------------| 
|------------------------------------------------------------| 
|--2-2-2----------2-2-2----------2-2-2----------2-2-2--------| 
|--2-2-2--5-4-----2-2-2--5-4-----2-2-2--5-4-----2-2-2--------| 
|--2-2-2----------2-2-2------2---2-2-2----------2-2-2--------| 

 
------------------------------------| 
------------------------------------| 
------------------------------------| 
------------------------------------| 
-4-4-4-4-4-4-4-4--4-----------------| 
-2-2-2-2-2-2-2-2--2-----------------| 


Chorus 

|------------------------------------------------------------------| 
|------------------------------------------------------------------| 
|----------------------------------4-4-4-4-4-4-4-4-----------------| 
|--2-2-2-2-2-2-2-2-2-2-2-2-2-2-2-2-4-4-4-4-4-4-4-4-5-5-5-5-5-5-5-5-| 
|--2-2-2-2-2-2-2-2-2-2-2-2-2-2-2-2-2-2-2-2-2-2-2-2-5-5-5-5-5-5-5-5-| 
|--2-2-2-2-2-2-2-2-2-2-2-2-2-2-2-2-----------------3-3-3-3-3-3-3-3-| 2x 

Solo 

|------------------------------------------------------------------| 
|------------------------------------------------------------------| 
|------------------------------------------------------------------| 
|------------------------------------------------------------------| 
|---5-7-7-7-7-7-7-7-5-7-7-7-7-7-9-9-7-7-9-9-9-9-10-9-5-5-5-5-5-5-5-| 
|------------------------------------------------------------------| 

 
------------------------------------------------------------------| 
------------------------------------------------------------------| 
---------------------------------4-4-4-4-4-4-4-4------------------| 
---------------------------------4-4-4-4-4-4-4-4-5-5-5-5-5-5-5-5--| 
-4-5-4-5-4-5-4-5-4-5-4-5-4-5-4-5-2-2-2-2-2-2-2-2-5-5-5-5-5-5-5-5--| 
-------------------------------------------------3-3-3-3-3-3-3-3--| 


|------------------------------------------------------------| 
|------------------------------------------------------------| 
|------------------------------------------------------------| 
|--2-2-2----------2-2-2----------2-2-2----------2-2-2--------| 
|--2-2-2--5-4-----2-2-2--5-4-----2-2-2--5-4-----2-2-2--5-4---| 
|--2-2-2----------2-2-2------2---2-2-2----------2-2-2------2-| 2x 

|-----------------| 
|-----------------| 
|-----------------| 
|-----2-------2---| 
|-----2-------2---| 
|-0-0-----0-0-----| 8x 

|-----------------| 
|-----------------| 
|-----------------| 
|-----------------| 
|-----------------| 
|-0-0-------------| 
		  

See also:

tabs Wheatus - Teenage Dirtbag tabs James Blunt - Wisemen tabs Candlebox - Far behind tabs Slash Snakepit - Godfather Theme tabs Hoobastank - Disappear tabs Iron Butterfly - IronButterfly-in A Gadda Da Vida
e-chords

Other versions:

tabs Stone Sour - Freeze Dry Seal
auto scroll beats size up size down change color hide chords drawings
tab show chords e-chords YouTube Clip e-chords hide all tabs e-chords go to top tab

share