Stevie Ray Vaughn and Double Trouble

Riviera Paradise

Stevie Ray Vaughn and Double Trouble

tabs Beginner beginner

by  GIBSON_LP

save to print version add songbook text version e-mail correct tuner
chordsukulelecavacokeyboardtabbassdrumsharmonicaflute Guitar Pro
close

there isn't a video lesson for this song

chords

Riviera Paradise

	  		Gtr I (Eb Ab Db Gb Bb Eb) - 'Stevie Ray Vaughan - Lead / Rhythm Clean Electric' 
Gtr II (Eb Ab Db Gb Bb Eb) - 'Reese Wynans - Keyboard arr. for Gtr.' 
 
Intro 
  Free Time Q=80 
 4/4 
  Gtr I 
                                            ~~~~~~~~~~~ 
    S  S  e  S  S e  S S e  E E   E E E E E Q.      H.        S E   S 
|-^10-12-10-^8-10-8-^6-8-6------|-----------0----|-!0-----------8-/11-| 
|-^10-------^8----8-^6---6-/9-7-|---------0------|-!0-------^11-------| 
|-^10-------^8------^6-----/8-8-|-------0--------|-!0-------^10-------| 
|--------------------------/7-7-|-----4----------|-!4-------^-9-------| 
|-------------------------------|---7------------|-!7-----------------| 
|--------------------------/8-8-|-0--------------|-!0-----------------| 
 
 
                               ~~~ 
                                       |-3-| 
   +S  s T  T S   S s T T S S  E. +E   S S S 
|-(11)-9-7-----------------------------------| 
|----------10---/10-8-7-------^7--(7)-/7-7-7s| 
|----------------/9-----9-----^8--(8)-/8-8-8s| 
|----------------/8-----------^6--(6)-/6-6-6s| 
|--------------------------------------------| 
|---------------------------7---------/7-----| 
 
 
               Slower Q=56 
 3/4            4/4 
          ~~~~~~~~~~~~~~~~~~~~~ 
    E  E  H        Q    Q    Q   Q 
|--------------|-^-7--!-7--^-7---7--|| 
|--10-10-------|-^-8--!-7--^-7---7--|| 
|--11----11----|-^-9--!-9--^-7---8--|| 
|---9-----9----|-^10--!10--^10--10--|| 
|--------------|----------------12--|| 
|-/10----------|--------------------|| 
 
 
 Theme 
                       |--3--| 
    Q..   S T T S S S  E E S S 
|-!-7--------------------------| 
|-!-7-------7h8p7------------7-| 
|-!-7-------------7--------7---| 
|-!-9---------------9----9-----| 
|-!10-----------------10-------| 
|-!-0-----0--------------------| 
 
 
         ~ 
                                                |--3--| 
  a E. S H    a S S T T S   Q..    S T T S S S  E E S S 
|-------------------------|-----------------------------| 
|--------7----------------|----------7h8p7------------7-| 
|--------6----------------|----------7-----7--------7---| 
|--------5--------7-7h9p7-|------------------9----9-----| 
|-------------7s9---------|-------10-----------10-------| 
|-0h5--5------------------|-0---------------------------| 
 
 
         ~~       ~         ~~                                  ~    ~ 
                                               |--3--| 
  a E. S E. S S S E S S E   Q.   S S T T S S S E E S S   a E. S Q  e Q  a S S 
|-------------------------|-5--------------------------|-----------------------| 
|--------7----7---7---6---|-5----5-6-5h6p5-----------5-|--------5--5-5---------| 
|--------6----6---6---5---|-5--------------5-------5---|--------4--4-4---------| 
|--------5----5---5---4---|-7----------------7---7-----|--------3--3-3------5--| 
|-------------------------|-8------------------8-------|----------------5s7----| 
|-0h5--5----5---5---------|----------------------------|-0h3--3----------------| 
 
 
     ~~                              ~~     ~ 
                    |--3--| 
  Q  E. S T T S S S E E S S   a E. S E. S e E S s E 
|---------------------------|-----------------------| 
|----5----5h6p5---------5---|--------5----5-5---4---| 
|----5----5-----5-----5---5-|--------4----4-4---3---| 
|----7----------7---7-------|--------3----3-3---2---| 
|-8-----8---------8---------|-----------------------| 
|---------------------------|-0h3--3----3-----------| 
 
 
                       |--3--| 
   Q.   S S a T S. S S E E S S 
|-^3---------------------------| 
|-^3----3-4-3h4-3------------3-| 
|-^3---------------3-------3---| 
|-^5-----------------5---5-----| 
|-^6-------------------6-------| 
|------------------------------| 
 
 
              ~~                        ~~~~~~~~~~~~~ 
                         |----3----| 
  a E. S q  e Q.     Q  +E    E    E    H         H.      Q 
|------------------|--------------------------|-<12>----------|| 
|--------4--3-1----|------------------<12>----|---------------|| 
|--------3--2-2----|-------------<12>---------|---------------|| 
|--------2--1-1----|--------<12>--------------|---------------|| 
|-----------2-2----|--------------------------|---------------|| 
|-0h2--2-----------|-0--(0)-------------------|---------------|| 
 
 
 Guitar Solo 
  H    E.  S  S  S      S      +S 
|----------------------------------| 
|---------12-15-15pb17-15pb17r(15)-| 
|----------------------------------| 
|----------------------------------| 
|----------------------------------| 
|----------------------------------| 
| 
| Gtr II 
| W 
|----------------------------------| 
|-7--------------------------------| 
|-7--------------------------------| 
|-5--------------------------------| 
|-7--------------------------------| 
|-0--------------------------------| 
|-Rhy Fig 1 
 
                                               ~~ 
   |-----3-----|                   |--3--|        |--3--| 
   S      +S   S  T     +T   T  T  S  S  S     E  s  S  S  E  +Q       H    E  s  s  s     s  s  s 
|--------------------------------------------------------------------|--------12-12-12----12-12-12--| 
|-15pb17r(15)-12-----------------------------------------------------|------------------------------| 
|----------------14b16r(14)-12----12-14-14b16-14-12------------------|-----------12-14b16-12-14-12--| 
|------------------------------14-------------------14-12-14-(14)----|--------14--------------------| 
|--------------------------------------------------------------------|------------------------------| 
|--------------------------------------------------------------------|------------------------------| 
| 
|  H.                                                          S  E.   W 
|--------------------------------------------------------------------|------------------------------| 
|--7--------------------------------------------------------------8--|-7----------------------------| 
|--6--------------------------------------------------------------8--|-7----------------------------| 
|--5--------------------------------------------------------------6--|-5----------------------------| 
|-----------------------------------------------------------------8--|-7----------------------------| 
|--5-----------------------------------------------------------------|-0----------------------------| 
 
 
         ~~~~~~~ 
   a  e  E  +S   S E H          Q  E.  S  S  S  S  S  e E 
|----12-----------------------|---------------------------| 
|-----------------------------|-------12-15-12-15-12-15---| 
|-14s15-14-(14)-12------------|---------------------------| 
|-----------------------------|---------------------------| 
|-----------------------------|---------------------------| 
|-----------------------------|---------------------------| 
| 
|     H              E E S E.   W 
|-----------------------------|---------------------------| 
|-----7----------------7---6--|-5-------------------------| 
|-----6----------------6---5--|-5-------------------------| 
|-----5----------------5---4--|-3-------------------------| 
|-----------------------------|---------------------------| 
|-----5----------------5---4--|---------------------------| 
 
 
                                               ~~~~~~~~~~~~~~ 
   |----3-----|                     |----3-----| 
   S     +S   S  T     +T   T   T   S  S      +S   +E   +Q      Q 
|-----------------------------------------------------------------------| 
|-15b17r(15)p12---------------------------------------------------------| 
|---------------14b16r(14)-12------12-14b16==(14)-(14)-(14)r------------| 
|-----------------------------(14)--------------------------------------| 
|-----------------------------------------------------------------------| 
|-----------------------------------------------------------------------| 
| 
|  H                                                     E   E +S  E. 
|-----------------------------------------------------------------------| 
|--5---------------------------------------------------------5-(5)-6----| 
|--4---------------------------------------------------------4-(4)-5----| 
|--3---------------------------------------------------------3-(3)------| 
|-----------------------------------------------------------------------| 
|--3---------------------------------------------------------3-(3)------| 
 
 
            |3-|       |-3-|  |--3--|       |---3---| 
  Q  E.  S  E  S      +S   e  E     S      +S    S  S 
|-----------------------------------------------------| 
|-------12-15-15pb17r(15)p12--------------------------| 
|----------------------------14b16-14b16==(14)r-14-12-| 
|-----------------------------------------------------| 
|-----------------------------------------------------| 
|-----------------------------------------------------| 
| 
| W 
|-----------------------------------------------------| 
|-5---------------------------------------------------| 
|-5---------------------------------------------------| 
|-3---------------------------------------------------| 
|-----------------------------------------------------| 
|-----------------------------------------------------| 
 
 
                                   ~~~~~~~                ~~~~~~~ 
   |---3----|   |--3---|                      |--3--|         |----3----|  |--3--| 
   E     a  S  +S   S  S  S     T  T  +E   a  S  S  S  a  E  +S   S     S  S  S  S   H    E  S  S  S  S  S  S 
|----------------------------------------------------------------------------------|---------------------------| 
|----------------------------------------------------------------------------------|--------12-12-12-12-12-12--| 
|-16b17-16s14-(14)-12----14b16-12-14-(14)-12h14p12---------------------------------|---------------------------| 
|---------------------14---------------------------14-12h14-(14)-12----------------|---------------------------| 
|----------------------------------------------------------------------14-13-12s10-|---------------------------| 
|----------------------------------------------------------------------------------|---------------------------| 
| 
|  H                                          E           E  +S     E.               W 
|----------------------------------------------------------------------------------|---------------------------| 
|--5------------------------------------------------------5--(5)----4--------------|-3-------------------------| 
|--4------------------------------------------------------4--(4)----3--------------|-3-------------------------| 
|--3------------------------------------------------------3--(3)----2--------------|-1-------------------------| 
|----------------------------------------------------------------------------------|---------------------------| 
|--3------------------------------------------------------3--(3)----2--------------|---------------------------| 
 
 
   a  S  S  a  S  S  a  S  S  a  S  S  a  S  S  a  S   S  a  S  S  a  S  S 
|--------------------------------------------------------------------------| 
|-11s12-12-11s12-12-11s12-12-11s12-12-11s12-12-11s12--12-11s12-12-11s12-12-| 
|--------------------------------------------------------------------------| 
|--------------------------------------------------------------------------| 
|--------------------------------------------------------------------------| 
|--------------------------------------------------------------------------| 
| 
|     H                                   E        Q. 
|--------------------------------------------------------------------------| 
|-----4-----------------------------------3--------1-----------------------| 
|-----3-----------------------------------2--------2-----------------------| 
|-----2-----------------------------------1--------1-----------------------| 
|-----------------------------------------2--------2-----------------------| 
|-----2--------------------------------------------------------------------| 
 
 
                               ~~~~~~~~~~~~~~~~~ 
      |--3--|         |3-|  |3-|             |--3---| 
   a  E  a  S  +E   E E  S  S  E  +E   +E   +S   S  S 
|-11s12-11s12-(12)\--------15----------------------15--| 
|-11s12-11s12-(12)\-----17----17-(17)-(17)-(17)-17-----| 
|------------------------------------------------------| 
|------------------------------------------------------| 
|------------------------------------------------------| 
|------------------------------------------------------| 
| 
|     W 
|-----0------------------------------------------------| 
|-----3------------------------------------------------| 
|-----4------------------------------------------------| 
|-----5------------------------------------------------| 
|------------------------------------------------------| 
|-----0------------------------------------------------| 
 
 
       |--3--|       |---3----| |--3--|        |3-| 
   Q   S  S  S  +E   S  S  a  S S  S  S  s  s  s  e 
|--------15---------15----17s18---17-15-17-15-17-15-|| 
|-17--17----17-(17)----17---------------------------|| 
|---------------------------------------------------|| 
|---------------------------------------------------|| 
|---------------------------------------------------|| 
|---------------------------------------------------|| 
| 
|  W 
|--0------------------------------------------------|| 
|--3------------------------------------------------|| 
|--4------------------------------------------------|| 
|--5------------------------------------------------|| 
|---------------------------------------------------|| 
|--0------------------------------------------------|| 
                                      end Rhy Fig 1-| 
 
w/Rhy Fig 1 x2 
   |--3--|  |--3--|  |--3--|  |--3--|                    |-----5-----|             |--3--| 
   S  S  S  S  S  S  S  S  S  T  T  T  T  T  T  T  T  T  T  a  S  T  T  T  T  T  T S  S  S 
|-18s19-19-------15-15-17-17s18s17-15-17-15--------------------------------------------------| 
|----------17-17----------------------------17-15-------15-----------------------------------| 
|-------------------------------------------------15h16----15s14p12----14-12-----------------| 
|-------------------------------------------------------------------14-------14-12---11-14---| 
|--------------------------------------------------------------------------------------------| 
|--------------------------------------------------------------------------------------------| 
 
 
 
   |--3---|                                                 |--3--|           |-----5-----| 
   S   S  S  s  T  T  T  T  T  T  T  T  T  T  T  a  T  T  T S  S  S T  S.     T  T  T  T  T 
|-------------------------------------------------------------------------------------------| 
|-------------------------------------------------------------------------------------------| 
|-12-----14-12-14-12----14-12----14-12----14-12-14h15s14p12---14-12----------12-------------| 
|-----14-------------14-------14-------14-----------------------------14--------14-12-------| 
|-------------------------------------------------------------------------------------14-13-| 
|-------------------------------------------------------------------------------------------| 
 
 
 
                |--3--|             |--3--| 
   T  T E. Q  E S  S  S  T  T  T  T S  S  S 
|--------------------15-17h18p17p15---17-15-| 
|-----------------17------------------------| 
|-------------------------------------------| 
|-------------------------------------------| 
|-12----------------------------------------| 
|----15-------------------------------------| 
 
 
 
      |3-|  |--3--|  |--3--|                          |--3--| 
   a  E  S  S  S  S  S  S  S  T  T  T  T  T  T  T  T  S  S  S  a  E     T  T  T  T 
|-18s19-19-------15-15-------------------------------------------------------------| 
|----------17-17-------15-15-17-17-------15-15-------------------------------------| 
|----------------------------------16-16-------14-14-12-12-12-12h14----12-12-11-11-| 
|----------------------------------------------------------------------------------| 
|----------------------------------------------------------------------------------| 
|----------------------------------------------------------------------------------| 
 
 
 
   |--3--|        |--3--|                       |--3--|   |--3---|                 |---3----|  |--3--| 
   T  T  T  T  T  T  T  T  T  T  T  T  T     T  S  S  S  +S   S  S  T  T  a  T  T  S  a  S  S  S  S  S 
|---------------------------------------------------------------------------------------------------------| 
|----------------------------------------------------15-(15)----------------------------------------------| 
|-11h12p11----12----------------12-14-14b16-14-12------------15p14p12----12h14-12-------------------------| 
|----------14----14p13----12-14-------------------14------------------14----------14-12-14-12-------------| 
|----------------------14---------------------------------------------------------------------14-13-12----| 
|---------------------------------------------------------------------------------------------------------| 
 
 
 
                                                                                           ~~~~~~~ 
               |--3--|       |------3------|    |--------3---------|      |--3---|   |--3--| 
   T  T  T  T  E     S      +E    a       +S   +S    a       +S    S      S     +E   S  S  S  +E     E 
|------------------------------------------------------------------------------------------------------| 
|------------------------------------------------------------------------------------------------------| 
|------------------------------------------------------------------------------------------------------| 
|------------------------------------------------------------------------------------------------------| 
|-10----10-12-12b14-12b14==(12)r(12)b14==(12)-(12)r(12)b14==(12)r-12pb14-12b14r(12)-10h12-12-(12)------| 
|----12------------------------------------------------------------------------------------------------| 
 
 
 
                         ~~~~~~~~~~~~ 
       |--3--|  |3-|              |-3-| 
  Q  E S  S  S  E  s     E  +E   +E   S 
|----------------------------------------| 
|----------------------------------------| 
|----------------------------------------| 
|----------------------------------------| 
|-----------10-12-12b14-12-(12)-(12)-----| 
|--------12--------------------------12--| 
 
 
 
   |--3--| 
   E     S  S     +T   T  H       Q       H    Q    S  S  S  S 
|---------------------------------------|----------------------| 
|---------------------------------------|----------------------| 
|---------------------------------------|----------------------| 
|---------------------------------------|----------------------| 
|-12b14-10-12b14r(12)p10----------------|----------------10-10-| 
|------------------------12-------------|---------/12-12-------| 
 
 
 
            ~~~~~~~~~~~~                ~~~ 
   |--3--|           |--3---|     |3-|      |--3--|  |3-| 
   E     S  E  +E   +S   S  S  a  E  S  E   S  S  S  S  e 
|---------------------------------------------------------| 
|---------------------------------------------------------| 
|------------------------------------------12-14-12----12-| 
|-----------------------------------12-14-----------14----| 
|-12b13-10-12-(12)-(12)-10-12-12s14-----------------------| 
|---------------------------------------------------------| 
 
 
 
        |3-| |--3--|     |3-| |--3--|     |3-| |--3--| 
    Q   E  S S  S  S  a  E  S S  S  S  a  E  S S  S  S 
|---------12---12-12----12-12---12-12----12-12---12-12-| 
|------------------------------------------------------| 
|--------------12-14-14s16-16---15-16-15s16-16---15-16-| 
|-(14)----14-------------------------------------------| 
|------------------------------------------------------| 
|------------------------------------------------------| 
 
 
 
      |3-| |---3----|     |3-| |--3--|     |3-| |---3----|     |3-| |--3--| 
   a  E  S S  a  S  S  a  E  S S  S  S  a  E  S S  a  S  S  a  E  S S  S  S 
|----12-12------12-12----12-12---12-12----12-12------12-12----12-12---12-12--|| 
|---------------------------------------------------------------------12-12--|| 
|-15s16-16---15s16-16-15s16-16---15-16-15s16-16---15s16-16-15s16-16---15-15--|| 
|----------------------------------------------------------------------------|| 
|----------------------------------------------------------------------------|| 
|----------------------------------------------------------------------------|| 
 
 
 
         |3-|  |3-|  |3-|  |3-| 
    E  E E  s  e  s  e  s  e  s  s  s  s  s 
|-/12\-----12-12-12----12-------12----12----| 
|-/12\-----15----12-15----15-12----15----15-| 
|-------------------------------------------| 
|-------------------------------------------| 
|-------------------------------------------| 
|-------------------------------------------| 
 
 
 
                                                       ~~~~~~~~~~ 
                   |------3-------|  |-----5-----|  |3-|      |-3-| 
   a  s   s  s  s  s  s  s  s  s  s  s  s  s  s  s  s  E     +E   S 
|-12h15--15-14-14-12-12---------------------------------------------| 
|-----------------------15-15-12-12---------------------------------| 
|-----------------------------------14-14-12-12-11-11---------------| 
|-----------------------------------------------------14----(14)-12-| 
|-------------------------------------------------------------------| 
|-------------------------------------------------------------------| 
 
 
 
                  |--3--|        |---3----|  |--3--|     |--3--|  |3-| 
   T  T  T  T     S  S  S  +Q    S     S  S  S  S  S  a  S  S  S  S  E 
|----------------------------------------12-------15-12h14p12-------15b17-| 
|-------------------------------------12----15-12-------------15-12-------| 
|----12-14-14b16-14-12----------14b15-------------------------------------| 
|-14-------------------14-(14)--------------------------------------------| 
|-------------------------------------------------------------------------| 
|-------------------------------------------------------------------------| 
 
 
 
                                       ~~~                              ~~~~~~~~ 
                           |---3----|                         |----3----| 
   T  s  T      +E   +E   +S   +S   S  Q.         +E     H    E  E     +E   +Q 
|-15-12-17b19==(17)-(17)-(17)r(17)-15------------------|--------15b17r(15)-(15)----| 
|-------------------------------------17---------(17)\-|---------------------------| 
|------------------------------------------------------|---------------------------| 
|------------------------------------------------------|---------------------------| 
|------------------------------------------------------|---------------------------| 
|------------------------------------------------------|---------------------------| 
 
 
 
               ~~~~~~~~ 
     |----3----| 
  Q  E  E     +E   +E  S  S     +E.     S 
|------15b17r(15)-(15)---15b17r(15)----15b17r| 
|--------------------------------------------| 
|--------------------------------------------| 
|--------------------------------------------| 
|--------------------------------------------| 
|--------------------------------------------| 
 
 
 
                  ~~~~~~~          ~~~~~~~ 
             |-3--|       |--3--|                                 |3-| 
    a       +E    S  +E   s  s  s  E  +S   T  T  T     +T   T  T  S  E     T  T  T  T 
|-(15)b17==(15)r-15-(15)-12----15-12-(12)------------------------------------12-------| 
|---------------------------12------------15p12---------------------------12----15-12-| 
|-----------------------------------------------14b16r(14)-12----12-14b16-------------| 
|-------------------------------------------------------------14----------------------| 
|-------------------------------------------------------------------------------------| 
|-------------------------------------------------------------------------------------| 
 
 
 
                                       |-------------3-------------|             |-3--| 
   T     +T   T  T  T  S     +T       +E    a       +E    a       +E    a       +E   +S       +S    a       +S   +Q 
|------------------------------------------------------------------------------------------------------------------------| 
|------------------------------------------------------------------------------------------------------------------------| 
|-14b16r(14)p12----12h14b16r(14)b16==(14)r(14)b16==(14)r(14)b16==(14)r(14)b16==(14)r(14)b16==(14)r(14)b16==(14)-(14)r----| 
|---------------14-------------------------------------------------------------------------------------------------------| 
|------------------------------------------------------------------------------------------------------------------------| 
|------------------------------------------------------------------------------------------------------------------------| 
 
 
 
           ~~~~~~~~~~~~~~~~~      ~~~ 
  H    E   Q.         H        E  Q. 
|------------------|--------------------| 
|------------------|--------------------| 
|--------^14pb16---|-14pb16------11-----| 
|--------^-x-------|--------------------| 
|--------^-x-------|--------------------| 
|--------^12-------|--------------------| 
 
 
 
                ~~~~~~~~                      ~~~~~~~~ 
                          |--3---|  |--3--|             |--3---| 
   S  T     T  +E   +E   +S   S  S  S  S  S  +E   +E   +S   S  S 
|----------------------------------------------------------------| 
|----------------------------------------------------------------| 
|----12b13-------------------------------------------------------| 
|-14-------14-(14)-(14)-(14)-12----------------------------------| 
|-------------------------------14-13-12s10-(10)-(10)-(10)-12p10-| 
|----------------------------------------------------------------| 
 
 
 
                                    ~~~~ 
      |3-|                  |-3-| 
   a  E  S  a  E  +T   S.  +E   S   Q   Q 
|------------------------------------------| 
|----------------------------------12------| 
|------------------------------------------| 
|-------12---------------------12-(12)-----| 
|-12s14----12s14-(14)-14--(14)-------------| 
|------------------------------------------| 
 
 
 
 Keyboard Solo 
      ~~ 
  Q   H    Q    W           W          H.      S E. 
|----12-------|----------|-----------|--------------| 
|----12-------|----------|--7--------|-7---------6--| 
|-------------|----------|--7--------|-6---------5--| 
|-------------|----------|--9--------|-5---------4--| 
|-------------|----------|-10--------|--------------| 
|-------------|----------|-----------|-5------------| 
 
 
  ~~~~~~~~~~~~~~~~~~~                  ~~ 
  H    H      H    H      Q  q  H      H.      S E S 
|-----------|-----------|------------|---------------| 
|-5----5----|-5----5----|-5----------|-5---------4---| 
|-5----5----|-4----4----|-5----------|-4---------3---| 
|-7----7----|-3----3----|-7--7-------|-3---------2---| 
|-8----8----|-----------|-8----------|---------------| 
|-----------|-3----3----|------------|-3-------------| 
 
 
                  ~~~                              ~~ 
                                        |-3-| 
  H    Q  Q    E +Q.   E Q.     Q  a Q  E E E Q    H.       Q 
|------------|----------------|------------------|---------!0----|| 
|-3----3--3--|-4-(4)---3-1----|------------------|-0-------!0----|| 
|-3----3--3--|-3-(3)---2-2----|---------------0--|---------!0----|| 
|-5----5--5--|-2-(2)---1-1----|-----------2-4----|---------------|| 
|-3----3--3--|---------2-2----|----0h2-----------|---------------|| 
|------------|-2-(2)----------|-0----------------|---------------|| 
 
 
              |3-|  |3|   |3| |3| 
  H     e  e  E  S  e S   E s E S Q  Q  S E. 
|-----------------------|--------------------| 
|-------7--7--7--7--7-7-|---7---x-7-------7--| 
|-------7--7--7--7--7-6-|---6---x-6-------6--| 
|-------9--9--9--9--9-5-|---5---x-5-------5--| 
|------10-10-10-10-10---|--------------------| 
|-----------------------|--------------------| 
 
 
       |3-| |3-| |3-| |3-| |3-|      |3| |3| |3| 
   Q   E  S E  S E  S E  S E  S  E   E S E S E S E Q  E E 
|----------------------------------|----------------------| 
|--7---7--7----7----7----7----7--7-|-7-7---7---7-7-7------| 
|--7---7--7----7----7----7----7--7-|-6-6---6---6-6-6----6-| 
|--9---9--9----9----9----9----9--9-|-5-5---5---5-5-5----5-| 
|-10--10-10---10---10---10---10-10-|--------------------4-| 
|----------------------------------|-5-5---5---5-5-5----4-| 
 
 
     |3| |3|                 |3|             |3|      |3|        |3-| 
  Q  E S E S Q  S S E   Q  E E S H      Q  E E S Q  E E S   Q  E E +S  H 
|---------------------|---------------|-------------------|-----------------| 
|----5-5-5--------5---|----5-5-5------|----5-5-5----5-5-5-|----5-5-(5)------| 
|----5-5-5--------5---|----4-4-4------|----5-5-5----5-5-4-|----4-4-(4)------| 
|----7-7-7--------7---|----3-3-3------|----7-7-7----7-7-3-|----3-3-(3)------| 
|----8-8-8-8------8---|---------------|----8-8-8----8-8---|-----------------| 
|---------------------|---------------|-------------------|----3-3----------| 
 
 
  ~~~~~~~               ~~ 
  H    H       Q.   E e Q.     H    Q  S S  E   +H.      Q 
|-----------|----------------|--------------0-|-(0)---------|| 
|-3----3----|-/4------3-1----|--------------0-|-(0)---------|| 
|-3----3----|-/3------2-2----|--------------0-|-(0)---------|| 
|-5----5----|-/2------1-1----|-----------x/---|-------------|| 
|-6----6----|---------2-2----|-----------x/---|-------------|| 
|-----------|----------------|-----------x/---|-------------|| 
 
 
 Guitar Solo 
  Q  S  S  S  S  a  E  S  S  a  E  S  S    a  E  S  S  +E   E H 
|---------------------------------------|--------------------------| 
|---------------------------------------|--------------------------| 
|---------12-14-12s14-12-14-12s14-12-14-|-14s16----12-(12)\--------| 
|------14-------------------------------|-------14-----------------| 
|---------10-12-10s12-10-12-10s12-10-12-|-12s14----10-(10)\--------| 
|------12-------------------------------|-------12-----------------| 
|-Riff A                                                end Riff A-| 
 
Riff A 
 
  S   S   S  S  a  E  S  S  a  E  S  S  a  E  S  S 
|--------------------------------------------------| 
|--------------------------------------------------| 
|--------12-14-12s14-12-14-12s14-12-14-12s14-12-14-| 
|---(14)-------------------------------------------| 
|--------10-12-10s12-10-12-10s12-10-12-10s12-10-12-| 
|---(12)-------------------------------------------| 
 
 
   a  E  S  S  +S   +S  E H      S   S   S  S  a  E  S  S  a  E S  S  e  e 
|------------------------------|--------------------------------------------| 
|------------------------------|--------------------------------------------| 
|-14s16----12-(12)-(12)--------|--------12-14-12s14-12-14-12s14---12-14-14--| 
|-------14---------------------|---(14)-------------------------------------| 
|-12s14----10-(10)-(10)--------|--------10-12-10s12-10-12-10s12---10-12-12--| 
|-------12---------------------|---(12)-------------------------------------| 
 
 
  |--3--|     |-----3-----| 
  E  E  E  a  E  a  E  a  E  a  E  E Q 
|---------------------------------------| 
|---------------------------------------| 
|---10-10-15s16-15s16-15s16-15s16\------| 
|---------------------------------------| 
|---12-12-13s14-13s14-13s14-13s14\------| 
|---------------------------------------| 
 
 
  S   S   S  S  a  E  S  S  a  E  S  S  a  E  S  S 
|--------------------------------------------------| 
|--------------------------------------------------| 
|--------12-14-12s14-12-14-12s14-12-14-12s14-12-14-| 
|---(14)-------------------------------------------| 
|--------10-12-10s12-10-12-10s12-10-12-10s12-10-12-| 
|---(12)-------------------------------------------| 
 
 
                                     |--3---| 
   a  e S  s E  E  +Q    +S   a  S  +S   S  S 
|--------------14-(14)--(14)-14s15-(15)-15-15-| 
|---------15----------------------------------| 
|-14s16--------11-(11)--(11)-11s12-(12)-12-12-| 
|---------12----------------------------------| 
|-12s14---------------------------------------| 
|---------------------------------------------| 
 
 
                               |--3--|  |---3----| 
   e  S  S  e E Q  E   S  S    e  e  e  E  e  a  E  E  +E   Q 
|-15------------------------|------------------------------------|| 
|----15-15-15--------/17-17-|-17---------------------------------|| 
|-12------------------------|----14-14-12-12-12s14---------------|| 
|----12-12-12--------/14-14-|-14-------------------14-(14)\------|| 
|---------------------------|----12-12-10-10-10s12---------------|| 
|---------------------------|----------------------12-(12)\------|| 
 
 
                \1                  \1                \1 
                ~~~~~~~~            ~~~~~~~           ~~~~~~~ 
  W          Q  Q   +E  E Q    Q  E E  +Q   Q    Q  S E. +Q   Q 
|----------|-----------------|-----------------|-----------------| 
|----------|-----------------|-----------------|-----------------| 
|----------|----0---(0)------|------0--(0)-----|------0--(0)-----| 
|----------|-----------------|-----------------|-----------------| 
|----------|-----------------|-----------------|-----------------| 
|----------|-----------------|-----------------|-----------------| 
 
 
         \1                  \1             \1 
         ~~~~~~~             ~~~~~~~~~      ~~~~~~~ 
  H    S E. +Q     H    Q  S E.   +Q   Q  S E. +Q     W 
|----------------|--------------|-------------------|------| 
|----------------|--------------|-------------------|------| 
|--------0--(0)--|-----------0--|-(0)-------0--(0)--|------| 
|----------------|--------------|-------------------|------| 
|----------------|--------------|-------------------|------| 
|----------------|--------------|-------------------|------| 
 
 
       \3 
  H    H       H    Q  S  s  s  s    s  S  S  S  a  S  S  e H 
|------------|--------------------|------------------------------| 
|------------|--------------------|------------------------------| 
|------0-----|--------------12-14-|-14-12-14-12-14s16----12------| 
|------------|-----------14-------|-------------------14---------| 
|------------|--------------------|------------------------------| 
|------------|--------------------|------------------------------| 
 
 
  S  s  s  s  e  s   S   s   S   s   S   S  S E 
|-----------------------------------------------|| 
|-----------------------------------------------|| 
|------12-14-14-14-(12)-14-(12)-14-(12)-14-12---|| 
|---14------------------------------------------|| 
|-----------------------------------------------|| 
|-----------------------------------------------|| 
 
 
  |3-|                                                                         |--3--| 
  E  S  T  T  a  T  T  T  T  T  T  a  T  T  T  T  T  T  T  T  T   T   T  X  X  S  s  S  T  T  T  X  X 
|---------------------------------------------------------12---------15-12h14p12-------12--------------| 
|---------------------------15p12----------------------12----15p(12)-------------15-12----15-12--------| 
|------12-14-14s15s14p12----------14s15s14p12----12-14------------------------------------------15-14p=| 
|---14-------------------14-------------------14-------------------------------------------------------| 
|------------------------------------------------------------------------------------------------------| 
|------------------------------------------------------------------------------------------------------| 
 
 
         |--3--|  |--3--|                    |--3--|                               |------6-------|             |--3--| 
   T  T  T  T  T  T  T  T  s  X  X  X  X  a  T  T  T  S   T   T  a  a  T  T  S  a  T  T  T  T  T  T  T   T   a  T  T  T  T  T  T  T 
|--------------------------------------------------------------------------------------------------------------------------------------| 
|-------15p12----------------12----------12-----------------------------------------------------------------12-------------------------| 
|-12----------15p14p12----12----14p12-------12------------------12---------------------------------------------12----------------------| 
|----14----------------14-------------14-------14p12---------------12----------------------------12-14------------14p12----------------| 
|----------------------------------------------------14-(12)-10-------14-12s10-12h14p12-10-12s14------------------------14-13-12s10h===| 
|------------------------------------------------------------------------------------------------------(12)----------------------------| 
 
 
      |--3--|                                   |--3--| 
   a  S  a  T  a  S  S  a  S  S  a  S  e Q  E.  T  T  T 
|-------------------------------------------------------| 
|-------------------------------------------------------| 
|----------12-------------------------------------------| 
|-------12----------------------------------------------| 
|-12s14-------14s12p10-12s14-10-12s14-10----------10-12-| 
|----------------------------------------------12-------| 
 
 
 
      |--3--|                             |--3--|                 |--------6--------|  |------5-------|     |3-|     |3-| 
   a  T  T  T  T  T  T  T  T  T  T  a  T  T  T  T  T  T     T  T  T  T  a  T  T  T  T  T  a  T  T  T  T  a  S  T  a  S  T E 
|-------------------------------------------------------------12-------------------------------------------------------------| 
|----------------------------------------------------------12----15-12-------------------------------------------------------| 
|-------------------------------12-14s15s14p13----12h14b16-------------14s15s14p12----12-------------------------------------| 
|-------------------------12-14----------------14----------------------------------14-12h14p12----------------12-------------| 
|-12s13s12p10----10-12s14----------------------------------------------------------------------14p12s10-12s14----14s12p10----| 
|-------------12-------------------------------------------------------------------------------------------------------------| 
 
 
                    |3-|  |3-| 
  H     T  T  T  T  E  S  E  S  S  T  T 
|------------15h17-17-15-15-17-17-------| 
|------15-17----------------------17-17-| 
|---------------------------------------| 
|---------------------------------------| 
|---------------------------------------| 
|---------------------------------------| 
 
 
            |--3--| 
   s  s  s  e  a  S  S  S  S  T  T  T  T  T  T  T   T  Q 
|-15-15-17-17-17h19-19-------15-15------------------------| 
|----------------------17-17-------15-15-17-17------------| 
|----------------------------------------------16-(16)----| 
|---------------------------------------------------------| 
|---------------------------------------------------------| 
|---------------------------------------------------------| 
 
 
              |---3---|   |-3-|  |--3--|  |-----5-----| 
  E   S   S   E   E   E   E   S  S  S  S  T  T  T  T  T  a  T  T  T  T 
|----------------------------------------------------------------------| 
|---/15-/15-/15-/15-/15-/15\----12-14-15-14-------15p12----------------| 
|---/16-/16-/16-/16-/16-/16\----12-14-15-14p12----------14s15s14p12----| 
|----------------------------14----------------14-------------------14-| 
|----------------------------------------------------------------------| 
|----------------------------------------------------------------------| 
 
 
   |--3--|                       |3-|  |3-| 
   S  S  S  T  T  T  T  T  T  a  S  T  T  S  T  T     T  T  T  S  T  T  T  T  T  T  T  T  T  T  T 
|-------------------------------------------------------------------------------------------------| 
|-------12----------------------------------------------------------------------------------------| 
|-12-14----12-14-15-14p12----14h15-14p12----14-12b13----------------------------------------------| 
|-------------------------14-------------14----------14p12----14-12-------------------------12----| 
|----------------------------------------------------------14-------14-13-12s10----10h12s14----14-| 
|-------------------------------------------------------------------------------12----------------| 
 
 
              |3-| |--3--| 
  H    E.  s  e  s S  S  S 
|---------12-12-12---12-12-| 
|--------------------------| 
|--------------------------| 
|--------------------------| 
|--------------------------| 
|--------------------------| 
 
 
      |3-| |--3--|    |--3--|     |3-| |--3--|        |3-| 
   a  E  s S  S  S  e S  S  S  a  E  s S  S  S  S  S  S  e 
|-12s14-14---14-14-14---14-14-14s15-15---14-14-12-12--------| 
|----------------------------------------------------15-15--| 
|-----------------------------------------------------------| 
|-----------------------------------------------------------| 
|-----------------------------------------------------------| 
|-----------------------------------------------------------| 
 
 
      |3-| 
   a  S  T  T  T  a  T  T  T  T  +E  E  S   S  S  S  a  S  S  S S 
|-----------------------------------------^12----12---------------| 
|-----------------------------------------^12---------------------| 
|-14s15-14p12----14s15-14p12h14-(14)------^12h14-14-15s14s12------| 
|-------------14-----------------------14--------------------14---| 
|-----------------------------------------------------------------| 
|-----------------------------------------------------------------| 
 
 
  E  S  S  E E H 
|-------------------|| 
|---------12--------|| 
|------12-----------|| 
|---14--------------|| 
|-------------------|| 
|-------------------|| 
 
 
 Theme Recap - Outro 
                                 ~~~~~~~~~ 
   Q..   S e e a a E S S    E. S H    +S    E. 
|----------7-7-----------|---------------------| 
|--7-----------7h8p7-----|-------7----(7)---8s=| 
|--7-----------------7---|-------6----(6)---8s=| 
|--9-----9-------------9-|-------5----(5)--10s=| 
|-10---------------------|----------------(11)s| 
|------------------------|-/5--5---------------| 
 
 
                        |3|  |-3--| 
   Q..    S S  S S  S a S E +S  S S 
|-----------7-----------------------| 
|--7--------7----7----7h8p7-(7)-----| 
|--7-------------7--------------7---| 
|--9------------------------------9-| 
|-10-----10---10---10---------------| 
|-----------------------------------| 
 
 
         ~~       ~          ~~~ 
                                        |3|     |--3--| 
  a E. S E. S S S E S s E    Q.   S S a S E S S E E S S 
|-------------------------|-------5---------------------| 
|--------7----7---7---6---|-^5----5-6-5h6p5-----------5-| 
|--------6----6---6---5---|-^5--------------5-------5---| 
|--------5------------4---|-^7----------------7---7-----| 
|-------------------------|-^8------------------8-------| 
|-0h5--5----5---5---------|-----------------------------| 
 
 
         ~~ 
              |3| 
  a E. S E. S E S E +S  E. 
|----------------------------| 
|--------5----5s8s5-(5)------| 
|--------4----4s7s4-(4)------| 
|--------3-------------------| 
|----------------------------| 
|-0h3--3----3----------------| 
 
 
                           |--3--| 
   Q  +S  S S S a E a T S. E E S S 
|----------------------------------| 
|-^5--(5)-------5h6-5h6p5--------5-| 
|-^5--(5)-----5------------5---5---| 
|-^7--(7)---7----------------7-----| 
|-^8--(8)-8------------------------| 
|----------------------------------| 
 
 
                   ~ 
  a E. S  E. S s S E S S E    Q..    S  a a Q  a a Q 
|--------------------------|---------------------------| 
|--------^5----5---5---4---|-^3---------3h4p3--3h4p3---| 
|--------^4----4---4---3---|-^3------------------------| 
|--------^3----------------|-^5-----(3)----------------| 
|--------------------------|-^6------------------------| 
|-0h3--3-----3---3---------|---------------------------| 
 
                  Free Time Q=40 
   ~~~      ~~                       ~~ 
   Q.   E E Q.     E E E E E Q.      W 
|----------------|-----------0----|-!0----*| 
|-^4------3-1----|---------0------|-!0----*| 
|-^3------2-2----|-------0--------|-!0----*| 
|-^2------1-1----|-----4----------|-!4----*| 
|---------2-2----|---7------------|-!7----*| 
|-^2-------------|-0--------------|-!0----*| 

		  

Full key step upFull key step up
Half key step upHalf key step up
Half key step downHalf key step down
Full key step downFull key step down
hide glossary

See also:

tabs Stevie Ray Vaughn and Double Trouble - Riviera Paradise tabs Beyoncé - Speechless tabs Blind Boy Fuller - Piccolo Rag tabs Wilson Pickett - Land Of 1000 Dances tabs Mississipi John Hurt - Nobody cares for me tabs Blind Blake - Diddie wa diddie
e-chords

Other versions:

tabs Stevie Ray Vaughn and Double Trouble - Riviera Paradise
auto scroll beats size up size down change color hide chords drawings
tab show chords e-chords YouTube Clip e-chords hide all tabs e-chords go to top tab

share