Stevie Ray Vaughn and Double Trouble

Life By The Drop

Stevie Ray Vaughn and Double Trouble

tabs Beginner beginner

by  GIBSON_LP

save to print version add songbook text version e-mail correct tuner
chordsukulelecavacokeyboardtabbassdrumsharmonicaflute Guitar Pro
close

there isn't a video lesson for this song

chords

Life By The Drop

	  		Gtr I (E A D G B E) - 'Stevie Ray Vaughan - 12 string acoustic' 
 
Intro 
  Q=98(8=s8) 
 4/4 
  Gtr I 
  |-3-| |-3-| |--3--| |--3--|   |-3-| |--3--| |-3-| |-3-| 
  E E E E E E E S S E E E a E   E E E E S S E E E E E E E 
|-----------------------------|---------------------------| 
|-----------------------------|---------------------------| 
|-----------0-------------0h2-|-0-----------------------2-| 
|-----0-1h2---0h1p0---0-------|---2-1-0h1p0---0---0-------| 
|-0h3---------------3---3-----|-------------3---3---3p0---| 
|-----------------------------|---------------------------| 
 
 
                                         Verse 
              |-3-| 
  E E E E E E E E E   E E E E E E E E     E E E E E E E E 
|-------------------|-----------------||------------------| 
|-------------------|-----------------||o-----------------| 
|-----------------2-|-----------------||------------------| 
|-2-2-4-4-2-2-------|-2-2-4-4-2-2-4-4-||--2-2-4-4-2-2-4-4-| 
|-0-0-0-0-0-0-3p0---|-0-0-0-0-0-0-0-0-||o-0-0-0-0-0-0-0-0-| 
|-------------------|-----------------||------------------| 
 
 
  E E E E E E E E   E E Q  E E Q    E E E E E E E E 
|-----------------|-----2------2--|-----------------| 
|-----------------|-----2------2--|-----------------| 
|-----------------|-----2------2--|-2-2-4-4-2-2-4-4-| 
|-----------------|-----4------4--|-0-0-0-0-0-0-0-0-| 
|-2-2-4-4-2-2-4-4-|-----4------4--|-----------------| 
|-0-0-0-0-0-0-0-0-|-2-2----2-2----|-----------------| 
 
 
  E E E E E E E E   E E E E E E E E   E E E E E E E E 
|-----------------|-----------------|-----2-2-----2-2-| 
|-----------------|-----------------|-----2-2-----2-2-| 
|-----------------|-----------------|-----2-2-----2-2-| 
|-2-2-4-4-2-2-4-4-|-----------------|-----4-4-----4-4-| 
|-0-0-0-0-0-0-0-0-|-2-2-4-4-2-2-4-4-|-----4-4-----4-4-| 
|-----------------|-0-0-0-0-0-0-0-0-|-2-2-----2-2-----| 
 
 
                    Chorus 
  E E E E E E E E    E E Q  E E E E   E E E E E E E E 
|-----------------||-----2------2-2-|-----------------| 
|-----------------||-----2------2-2-|-----------------| 
|-2-2-4-4-2-2-4-4-||-----2------2-2-|-2-2-4-4---------| 
|-0-0-0-0-0-0-0-0-||-----4------4-4-|-0-0-0-0---------| 
|-----------------||-----4------4-4-|---------2-2-4-4-| 
|-----------------||-2-2----2-2-----|---------0-0-0-0-| 
| 
| W                  W                W 
|-2---------------||----------------|-----------------| 
|-1---------------||----------------|-----------------| 
|-2---------------||----------------|-----------------| 
|-0---------------||----------------|-----------------| 
|-----------------||----------------|-----------------| 
|-----------------||----------------|-----------------| 
 
 
  E E Q  E E E E   E E E E E E E E   H    H 
|------------2-2-|-----------------|-2----2----| 
|-----2------2-2-|-----------------|-2----1----| 
|-----2------2-2-|-2-2-4-4---------|-2----2----| 
|-----4------4-4-|-0-0-0-0---------|-4----0----| 
|-----4------4-4-|---------2-2-4-4-|-4---------| 
|-2-2----2-2-----|---------0-0-0-0-|-2---------| 
 
 
                          1. 
 2/4    4/4 
  H      E E E E E E E E   E E E E E E E E 
|-0----|-----------------|------------------|| 
|-0----|-----------------|-----------------o|| 
|-1----|-----------------|------------------|| 
|-2----|-2-2-4-4-2-2-4-4-|-2-2-4-4-2-2-4-4--|| 
|-2----|-0-0-0-0-0-0-0-0-|-0-0-0-0-0-0-0-0-o|| 
|-0----|-----------------|------------------|| 
 
 
                      Verse 
  2. 
      |-3-| 
  E E E E E E E E E    E E E E E E E E   E E E E E E E E 
|-------------------||-----------------|-----------------| 
|-------------------||-----------------|-----------------| 
|---------2---------||-----------------|-----------------| 
|-2-2-------2-2-4-4-||-2-2-4-4-2-2-4-4-|-----------------| 
|-0-0-3p0---0-0-0-0-||-0-0-0-0-0-0-0-0-|-2-2-4-4-2-2-4-4-| 
|-------------------||-----------------|-0-0-0-0-0-0-0-0-| 
 
 
                             |-3--| 
  E E E E E E E E   E E E E +E  E E E E   E E E E E E E E 
|-----2-2-----2-2-|-----2-2-(2)-----2-0-|-----------------| 
|-----2-2-----2-2-|-----1-1-(1)-1-----0-|-----------------| 
|-----2-2-----2-2-|-----2-2-(2)---2---0-|-----------------| 
|-----4-4-----4-4-|-----0-0-(0)---------|-2-2-4-4-2-2-4-4-| 
|-----4-4-----4-4-|---------------------|-0-0-0-0-0-0-0-0-| 
|-2-2-----2-2-----|-2-2-----------------|-----------------| 
 
 
  E E E E E E E E   W          H    +Q.   E 
|-----------------|-2--------|-2----(2)-----|| 
|-----------------|-2--------|-1----(1)-----|| 
|-----------------|-2--------|-2----(2)-----|| 
|-----------------|-4--------|-0----(0)-----|| 
|-2-2-4-4-2-2-4-4-|-4--------|--------------|| 
|-0-0-0-0-0-0-0-0-|-2--------|------------2-|| 
 
 
 Out-Chorus 
                         ~~~~~~ 
                                   |-3-| 
  Q  Q  E E Q    E E a E E +E  E a E E E 
|-2--2------2--|-------------------------| 
|-2--2------2--|-------------------------| 
|-2--2------2--|-------------------------| 
|-4--4------4--|-0-2-2h4-2-(2)-2-2h4p2---| 
|-4--4------4--|-----------------------2-| 
|-------2-2----|-------------------------| 
 
 
                            ~~~~~~ 
                                      |-3-| 
  E E E E E E E E   E E a E E +E  E a E E E 
|-----2-2-----2-2-|-------------------------| 
|-----2-2-----2-2-|-------------------------| 
|-----2-2-----2-2-|-------------------------| 
|-----4-4-----4-4-|-0-2-2h4-2-(2)-2-2h4-2---| 
|-----4-4-----4-4-|-----------------------4-| 
|-2-2-----2-2-----|-------------------------| 
 
 
               2/4      4/4 
  E Q.   H      Q.   E   E E E E E E E E 
|---2----2----|-0------|-----------------| 
|---2----1----|-0------|-----------------| 
|---2----2----|-1----0-|-----------------| 
|---4----0----|-2----0-|-2-2-4-4-2-2-4-4-| 
|---4---------|-2----0-|-0-0-0-0-0-0-0-0-| 
|-2-----------|--------|-----------------| 
 
 
      |-3-| 
  E E E E E E E E E   H    H 
|-------------------|-2----2----| 
|-------------------|-2----1----| 
|---------2---------|-2----2----| 
|-2-2-------2-2-4-4-|-4----0----| 
|-0-0-3p0---0-0-0-0-|-4---------| 
|-------------------|-2---------| 
 
 
 2/4      4/4 
                       |-3-| 
  Q.   E   E E E E E E E E E   E E E E E E E E 
|-0------|-------------------|-----------------| 
|-0------|-------------------|-----------------| 
|-1----0-|-----------------2-|-----------------| 
|-2----0-|-2-2-4-4-2-2-------|-2-2-4-4-2-2-4-4-| 
|-2----0-|-0-0-0-0-0-0-3p0---|-0-0-0-0-0-0-0-0-| 
|--------|-------------------|-----------------| 
 
 
             2/4      4/4 
  H    H      Q.   E   +W 
|-2----2----|-0------|--------*| 
|-2----1----|-0----2-|-(2)----*| 
|-2----2----|-1----2-|-(2)----*| 
|-4----0----|-2----2-|-(2)----*| 
|-4---------|-2----0-|-(0)----*| 
|-2---------|-0------|--------*| 

		  

Full key step upFull key step up
Half key step upHalf key step up
Half key step downHalf key step down
Full key step downFull key step down
hide glossary

See also:

tabs Blind Blake - Diddie wa diddie tabs Blues Songs - Sing a Line Then Play This tabs Blind Blake - Bad Feeling Blues tabs Robert Johnson - Come on in my kitchen tabs Allman Brothers Band - Its Not My Cross To Bear tabs Blues Songs - A7 Blues Riff
e-chords

Other versions:

tabs Stevie Ray Vaughn and Double Trouble - Life By The Drop
auto scroll beats size up size down change color hide chords drawings
tab show chords e-chords YouTube Clip e-chords hide all tabs e-chords go to top tab

share