Steve Vai

home > Steve Vai

Mysterious Murder Of Christian Teria Tab

Steve Vai

Difficulty: AdvancedAdvanced

tuner correct add songbook print version text version save to e-mail
chordsukulelecavacokeyboardtabbassdrumsharmonicsflute Guitar Pro
chords

Mysterious Murder Of Christian Teria

  		Steve Vai - Mysterious Murder Of Christian Teria's Lover 
 
|------------------------------------------------------------------------| 
|------------------------------------------------------------------------| 
|--------------------------------------------------------0---------------| 
|------------------------------P.H~~~------------------2-2---------------| 
|-----0--7p5--3h5--0--7p5--3h5--3-----0--7p5--3h5--2\1-------0--7p5--3h5-| 
|-18\-0--7p5--3h5--0--7p5--3h5--------0--7p5--3h5------------0--7p5--3h5-| 
 
                                  N.H-----------| 
|------------------------------------------------------------------------| 
|------------------------------------------------------------------------| 
|-------------------------------------------4-3--------------------------| 
|-------------P.H~~~--------------------4-3------------------------------| 
|-0--7p5--3h5--3-----0--7p5--3h5----4-3------------0--7p5--3h5--0--7p5---| 
|-0--7p5--3h5--------0--7p5--3h5--3----------------0--7p5--3h5--0--7p5---| 
 
                        w/wah 
                        Trem pick---------| 
|------------------------------------------------------------------------| 
|-----/22~---------------17---19---14---12-------------------------------| 
|------------------------------------------------------------------------| 
|------------------------------------------------------------------------| 
|-3h5------0--7p5--3h5------------------------0--7p5--3h5--0--7p5--3h5---| 
|-3h5------0--7p5--3h5------------------------0--7p5--3h5--0--7p5--3h5---| 
 
 
|-------------------------------6-------5------6-----3------------4-----| 
|---------------------------------7--------7-----7-----5----3--------5--| 
|--P.H----*------*--------------------------------------------2---------| 
|--)(----/12~~~-/12~~~--------------------------------------------------| 
|-3-(3)------------------------------5-------6-----3--------------------| 
|-----------------------------4--------------------------3------2-------| 
 *=WHAMMY PEDAL =(set to 20ct) 
                   N.H---------------------|      N.H--------------------| 
|------5-----4------------------------------------------------------------| 
|---3----------5----------------------------------------------------------| 
|-------------------------------------------------------------------------| 
|---------------------------------------------*---------------------------| 
|--------------------------------------------/14--------------------------| 
|-1-------0--------12-12-12-12-12-12-12-12--------12-12-12-12-12-12-12-12-| 
 
      N.H--------------------|      N.H---------------------|     N.H------ 
|--------------------------------------------------------------------------| 
|--------------------------------------------------------------------------| 
|-------------------------------*------------------------------*-----------| 
|--*---------------------------/14----------------------------/16----------| 
|-/16----------------------------------------------------------------------| 
|-----12-12-12-12-12-12-12-12-------12-12-12-12-12-12-12-12-------12-12-12-| 
 
----|     N.H-------|      N.H-------|       N.H--------| 
|---------------------------------------------------------------------------| 
|---------------------------------------------------------------------------| 
|------*---------------*-----------------*------------------*--*--*--*--*---| 
|-----/11-------------/11---------------/16----------------/9-/9-/9-/9-/9~~-| 
|---------------------------------------------------------------------------| 
|-12------12-12-12-12-----12-12-12-12--------12-12-12-12--------------------| 
 
 
 
 
 
 
|---------------------------------| 
|---------------------------------| 
|--*---*---*---*---*--------------| 
|-/16-/16-/16-/16-/16~~~--0-------| 
|-------------------------0--/18\-| 
|-------------------------0--/18\-| 
 *=whammy pedal set to (20ct) 
 
            *           *           *                              *           * 
|-2h5p2h5p2h5p2h5p2h5p2h5p2h5p2h5p2h5-5h7p5\4h5p4\2h4p2--0h2p0h2p0h2p0h2p0h2p0h2-| 
|--------------------------------------------------------------------------------| 
|--------------------------------------------------------------------------------| 
|--------------------------------------------------------------------------------| 
|--------------------------------------------------------------------------------| 
|--------------------------------------------------------------------------------| 
 *=whammy pedal set to (20ct) 
             *                        *           *            *           * 
|-p0h2p0h2p0h2--5h7p5\4h5p4-2h5p2h5p2h5p2h5p2h5p2h5--5h7p5h7p5h7-7h9p7h9p7h9-| 
|----------------------------------------------------------------------------| 
|----------------------------------------------------------------------------| 
|----------------------------------------------------------------------------| 
|----------------------------------------------------------------------------| 
|----------------------------------------------------------------------------| 
 
              *                 *                 *                 *                  * 
9h10p9h10p9h1010h12p10h12p10h12p10h12p10h12p10h12p10h12p10h12p10h12p10h12p10h12p10h12 
|-----------------------------------------------------------------------------------| 
|-----------------------------------------------------------------------------------| 
|-----------------------------------------------------------------------------------| 
|-----------------------------------------------------------------------------------| 
|-----------------------------------------------------------------------------------| 
 
              * 
|-10h12p10h12p9~~~~~~~----------| 
|-------------------------------| 
|-------------------------------| 
|-------------------------------| 
|-----------------------------0-| 
|------------------------18\--0-| 
 
Enjoy! 
 

	  

Search Paypal
auto scroll beats size up size down change color hide chords drawings
tab show chords e-chords YouTube Clip e-chords hide all tabs e-chords go to top tab