Stereolab

Velvet Water

Stereolab

tabs

by  ALYSLIMA

save to print version add songbook text version e-mail correct tuner
chordsukulelecavacokeyboardtabbassdrumsharmonicaflute Guitar Pro
close

there isn't a video lesson for this song

chords

Velvet Water

	  		
Intro 

N.C. 

  A6sus2 
e|------2-----------------2-----------------2-----------------2-----------| 
B|---------------0-----------------0-----------------0-----------------0--| 
G|------------------------------------------------------------------------| 
D|---2--------2--------2--------2--------2--------2--------2--------2-----| 
A|0--------0--------0--------0--------0--------0--------0--------0--------| 
E|------------------------------------------------------------------------| 

verse 1 

e|------2-----------------2----------| 
B|---------------0-----------------0-| 
G|-----------------------------------| 
D|---2--------2--------2--------2----| 
A|0--------0--------0--------0-------| 
E|-----------------------------------|                                                
  Vois la vague se creuse comme la braise dans le vent 

e|------2-----------------2----------| 
B|---------------0-----------------0-| 
G|-----------------------------------| 
D|---2--------2--------2--------2----| 
A|0--------0--------0--------0-------| 
E|-----------------------------------|                                                      
Voilà c'est ici qu'à son aise il s'enfuit le temps 

     e|------0-----------------0-| 
     B|--------------------------| 
     G|--------------------------| 
     D|---2-----------------2----| 
     A|0-----------------0-------| 
     E|--------------------------|            
Par moments (li-lou li-lou li-lou li-lou li-lou li-lou) 

e|------2-----------------2----------| 
B|---------------0-----------------0-| 
G|-----------------------------------| 
D|---2--------2--------2--------2----| 
A|0--------0--------0--------0-------| 
E|-----------------------------------|                                                         
Quand le temps qui passe qui s'égard ne se retrouve pas 

e|------2-----------------2----------| 
B|---------------0-----------------0-| 
G|-----------------------------------| 
D|---2--------2--------2--------2----| 
A|0--------0--------0--------0-------| 
E|-----------------------------------|                                                      
C'est la lumière du sombre regard qui guide mes pas 
  
      e|------0-----------------0-| 
      B|--------------------------| 
      G|--------------------------| 
      D|---2-----------------2----| 
      A|0-----------------0-------| 
      E|--------------------------|            
Vain combat (li-lou li-lou li-lou li-lou li-lou li-lou) 

e|------2-----------------2----------| 
B|---------------0-----------------0-| 
G|-----------------------------------| 
D|---2--------2--------2--------2----| 
A|0--------0--------0--------0-------| 
E|-----------------------------------|                                                
  Vois la vague se creuse comme la braise dans le vent 

e|------2-----------------2----------| 
B|---------------0-----------------0-| 
G|-----------------------------------| 
D|---2--------2--------2--------2----| 
A|0--------0--------0--------0-------| 
E|-----------------------------------|                                                      
Voilà c'est ici qu'à son aise il s'enfuit le temps 

Chorus 

G      D   Dmaj7            
Et pourtant 
         G    D    Dmaj7                    
Quand il se dévoile 
       G   D   Dmaj7  
L'éblouissement 
       Em7             
De la flamme - au corps nu  

Instrumental 
  
  Em7      Em       Em7      Em       Em7      Em       Em7      Em 
e|-----------------------------------------------------------------------| 
B|------3--0---0----------3--0---0----------3--0---0----------3--0---0---| 
G|---0-------0---0-----0-------0---0-----0-------0---0-----0-------0---0-| 
D|-----------------------------------------------------------------------| 
A|2-----------------2-----------------2-----------------2----------------| 
E|-----------------------------------------------------------------------|  

  Fm7      Fm       Fm7      Fm        
e|-----------------------------------| 
B|------5--2---2----------5--2---2---| 
G|---2-------2---2-----2-------2---2-| 
D|-----------------------------------| 
A|4-----------------4----------------| 
E|-----------------------------------|  

verse 2 

e|-----------------------------------| 
B|------3--0---0----------3--0---0---| 
G|---0-------0---0-----0-------0---0-| 
D|-----------------------------------| 
A|2-----------------2----------------| 
E|-----------------------------------|                                                         
Quand le temps qui passe qui s'égard ne se retrouve pas 

e|-----------------------------------| 
B|------3--0---0----------3--0---0---| 
G|---0-------0---0-----0-------0---0-| 
D|-----------------------------------| 
A|2-----------------2----------------| 
E|-----------------------------------|                                                      
C'est la lumière du sombre regard qui guide mes pas 
  
        e|-----------------------------------| 
        B|------5--2---2----------5--2---2---| 
        G|---2-------2---2-----2-------2---2-| 
        D|-----------------------------------| 
        A|4-----------------4----------------| 
        E|-----------------------------------|         
Vain combat  

e|-----------------------------------| 
B|------3--0---0----------3--0---0---| 
G|---0-------0---0-----0-------0---0-| 
D|-----------------------------------| 
A|2-----------------2----------------| 
E|-----------------------------------|                                              
  Vois la vague se creuse comme la braise dans le vent 

e|-----------------------------------| 
B|------3--0---0----------3--0---0---| 
G|---0-------0---0-----0-------0---0-| 
D|-----------------------------------| 
A|2-----------------2----------------| 
E|-----------------------------------|                                                     
Voilà c'est ici qu'à son aise il s'enfuit le temps 

Chorus 

G      D   Dmaj7            
Et pourtant (le nageur n'a plus peur) 
         G    D    Dmaj7                    
Quand il se dévoile (il plonge sous la lumière) 
       G   D   Dmaj7  
L'éblouissement (née dans les étoiles - où la vague se creuse) 
       Em7             
De la flamme 
  
e|-----------------------------------| 
B|------3--0---0----------3--0---0---| 
G|---0-------0---0-----0-------0---0-| 
D|-----------------------------------| 
A|2-----------------2----------------| 
E|-----------------------------------|  
                    Au corps nu 
  
          G    D   Dmaj7                   
S'arrache à la nuit (c'est la flamme au corps nu) 
       G       D  Dmaj7 
Où scintille l'âme (où scintille l'âme) 
         G   D  Dmaj7                 
Du temps dévolu (le temps est dévolu - là il brille une flamme) 
       Em7     
De la flamme - au corps nu 

e|-----------------------------------| 
B|------3--0---0----------3--0---0---| 
G|---0-------0---0-----0-------0---0-| 
D|-----------------------------------| 
A|2-----------------2----------------| 
E|-----------------------------------| 
  Aaah - aaah - aaah - aaah - aaah! 

Outro 

  A5 
E|-----------------------------------------------------------------------------------| 
B|-----------------------------------------------------------------------------------| 
G|-----------------------------------------------------------------------------------| 
D|2--2--2--2--2--2--2--2--2--2--2--2--2--2--2--2--2--2--2--2--2--2--2--2--2--2--2--2-| 
A|0--0--0--0--0--0--0--0--0--0--0--0--0--0--0--0--0--0--0--0--0--0--0--0--0--0--0--0-| 
E|-----------------------------------------------------------------------------------| 
  (Babah-babah - babah-babah - babah-babah- babah-babah - babah-babah - babah-babah) 
		  

Full key step upFull key step up
Half key step upHalf key step up
Half key step downHalf key step down
Full key step downFull key step down
auto scroll beats size up size down change color hide chords drawings
tab show chords e-chords YouTube Clip e-chords hide all tabs e-chords go to top tab

share