Steel Panther

Tomorrow Night

Steel Panther

tabs

by  ALEFFEDERICO

save to print version add songbook text version e-mail correct tuner
chordsukulelecavacokeyboardtabbassdrumsharmonicaflute Guitar Pro
close

there isn't a video lesson for this song

chords

Tomorrow Night

	  		

Intro/Pre-verse 1 

gtr 1 
       . .   . .   . .   . .   . . . . . .   . .   . .   . . 
d#|--------------------------------------------------------------------| 
A#|--------------------------------------------------------------------| 
F#|--------4-----5-----2-----4-------------4-----5-----2---------------| 
C#|--------4-----5-----2-----4-------------4-----5-----2-------5---4---| 
G#|-\------2-----3-----0-----2-------------2-----3-----0-----0---0---2-| 
D#|-\--0-0---0-0---0-0---0-0---0-3-2-3-0-0---0-0---0-0---0-0-----------| 

gtr 2 

d#|--------------------------------------------------------------------| 
A#|--------------------------------------------------------------------| 
F#|--------------------------------------------------------------------| 
C#|--------------------------------------------------------------------| 
G#|--------------------------------------------------------------------| 
D#|--------------------------------------------------------------------| 

gtr 3 

d#|--------------------------------------------------------------------| 
A#|--------------------------------------------------------------------| 
F#|--------------------------------------------------------------------| 
C#|--------------------------------------------------------------------| 
G#|--------------------------------------------------------------------| 
D#|--------------------------------------------------------------------| 

= 

gtr 1 
    . .   . .   . .   . .   . . . . . .   . .   . .   . . 
d#|-----------------------------------------------------------------| 
A#|-----------------------------------------------------------------| 
F#|-----4-----5-----2-----4-------------4-----5-----2---------------| 
C#|-----4-----5-----2-----4-------------4-----5-----2-------5---4---| 
G#|-----2-----3-----0-----2-------------2-----3-----0-----0---0---2-| 
D#|-0-0---0-0---0-0---0-0---0-3-2-3-0-0---0-0---0-0---0-0-----------| 

gtr 2 

d#|-17b~----14-15-17-15-15h17p15p14---------------------------------| 
A#|---------------------------------17-16-17b-----------------------| 
F#|----------------------------------------------16~----------------| 
C#|-----------------------------------------------------------------| 
G#|-----------------------------------------------------------------| 
D#|-----------------------------------------------------------------| 

gtr 3 

d#|-----------------------------------------------------------------| 
A#|-----------------------------------------------------------------| 
F#|-14b~----11-12-14-12-12h14p12p11---------------------------------| 
C#|---------------------------------14-13-14b-----------------------| 
G#|----------------------------------------------14~----------------| 
D#|-----------------------------------------------------------------| 

====== 

verse 1 ("The food will be great...") 
                                                  x2 
d#|-----------------------------------------------| 
A#|-5-5*-------3-3*-------------------------------| 
F#|-4-4*--2----2-2*-------------------------------| 
C#|-2-2*--2----0-0*--5----------2---------------2-| 
G#|-------0----------5----3-2-3---3-2-------2---2-| 
D#|------------------3--\-------------3-0-3---3-0-| 

====== 

Pre-Chorus 1 ("It's the party of the century...") 
            . .            .           . . 
d#|-------------------------------------------------------------| 
A#|-------------------------------------------------------------| 
F#|-5--5--5-----5--5--5--5---6-6--6--6-----6--6--6--5-5-5-| 
C#|-5--5--5-----5--5--5--5---6-6--6--6-----6--6--6--5-5-5-| 
G#|-3--3--3-3-3-3--3--3--3-3-4-4--4--4-4-4-4--4--4--------------| 
D#|-------------------------------------------------------------| 

====== 

Chorus 1 ("I'm goin' to a party...") 

d#|--------------------------------------------------------------------------------------------------------| 
A#|-----------3-3*-----------------------3-3------------------3-3*-----------------------3-3---------------| 
F#|-----------2-2*--2--4p2p0-------------2-2--2---------------2-2*--2--4p2p0-------------2-2--2------------| 
C#|-2----5----0-0*--2--------4p2p0-------0-0--2-----2----5----0-0*--2--------4p2p0-------0-0--2------------| 
G#|-2----5----------0--------------4p2p0------0-----2----5----------0--------------4p2p0------0--0-2-3~--2~| 
D#|-0----3--------------------------------------1b--0----3-------------------------------------------------| 

====== 

Pre-verse 2 

       . .   . .   . .   . .   . . . . . .   . .   . .   . . 
d#|--------------------------------------------------------------------| 
A#|--------------------------------------------------------------------| 
F#|--------4-----5-----2-----4-------------4-----5-----2---------------| 
C#|--------4-----5-----2-----4-------------4-----5-----2-------5---4---| 
G#|-\------2-----3-----0-----2-------------2-----3-----0-----0---0---2-| 
D#|-\--0-0---0-0---0-0---0-0---0-3-2-3-0-0---0-0---0-0---0-0-----------| 

====== 

verse 2 ("It's in Beverly Hills...") 
                                                 x2 
d#|-----------------------------------------------| 
A#|-5-5*-------3-3*-------------------------------| 
F#|-4-4*--2----2-2*-------------------------------| 
C#|-2-2*--2----0-0*--5----------2---------------2-| 
G#|-------0----------5----3-2-3---3-2-------2---2-| 
D#|------------------3--\-------------3-0-3---3-0-| 

====== 

Pre-Chorus 2 ("The security and pussy will both...") 
            . .            .           . . 
d#|-------------------------------------------------------------| 
A#|-------------------------------------------------------------| 
F#|-5--5--5-----5--5--5--5---6-6--6--6-----6--6--6--5-5-5-| 
C#|-5--5--5-----5--5--5--5---6-6--6--6-----6--6--6--5-5-5-| 
G#|-3--3--3-3-3-3--3--3--3-3-4-4--4--4-4-4-4--4--4--------------| 
D#|-------------------------------------------------------------| 

====== 

Chorus 2 ("I'm goin' to a party...") 

d#|--------------------------------------------------------------------------------------------------| 
A#|-----------3-3*-----------------------3-3------------------3-3*-----------------------3-3---------| 
F#|-----------2-2*--2--4p2p0-------------2-2--2---------------2-2*--2--4p2p0-------------2-2--2------| 
C#|-2----5----0-0*--2--------4p2p0-------0-0--2-----2----5----0-0*--2--------4p2p0-------0-0--2------| 
G#|-2----5----------0--------------4p2p0------0-----2----5----------0--------------4p2p0------0--0-2-| 
D#|-0----3--------------------------------------1b--0----3-------------------------------------------| 

====== 

Bridge ("But tonight I'm playin' Angry Birds...") 

d#|----------------------------| 
A#|--------------------------3-| 
F#|-5----4----2----4----5----2-| 
C#|-5----4----2----4----5----0-| 
G#|-3----2----0----2----3------| 
D#|----------------------------| 

====== 

Solo Rhythm 

gtr 1 (rhythm) 
                       . . . . . .         x2 
d#|----------------------------------------| 
A#|---------3-3----------------------------| 
F#|-2-2--5--2-2--2------------------5-5----| 
C#|-2-2--5--0-0--2--3---------------5-5--5-| 
G#|-0-0--3-------0--3---------------3-3--5-| 
D#|-----------------1--1-1-1-1-1-1-------3-| 

====== 

Solo 

gtr 2 

d#|---------------------------------------------------------------| 
A#|---------------------------------6b-6-5------------------------| 
F#|-7b-7~--5h7p5\4-5-7-5--4----------------7-5--4h7p4---4h7p4-----| 
C#|-------------------------7-5-----------------------5-------5---| 
G#|-----------------------------8~------------------------------5~| 
D#|---------------------------------------------------------------| 

gtr 3 

d#|-------------------------------------8b-8-7-------------------------| 
A#|-10b-10~-8h10p8\7-8-10-8--7-----------------10-8-7h10p7--7h10p7-----| 
F#|----------------------------9-7------------------------7--------7---| 
C#|--------------------------------10~-------------------------------7~| 
G#|--------------------------------------------------------------------| 
D#|--------------------------------------------------------------------| 

= 

gtr 2 

d#|----5---6b-8b-10b--10-8\7-8-10-8-7-----------------------------------------------------------7-| 
A#|-/5---5---------------------------10-8-6-5-6---------------------------5-6-8-8brp6p5-----/7----| 
F#|--------------------------------------------7-5-7-5----------------5-7---------------7~--------| 
C#|---------------------------------------------------7-5-7-5-3~--3/7-----------------------------| 
G#|-----------------------------------------------------------------------------------------------| 
D#|-----------------------------------------------------------------------------------------------| 

gtr 3 

d#|-----------------------------------------------------------------------------------------------| 
A#|-----------------------------------------------------------------------------------------------| 
F#|-----------------------------------------------------------------------------------------------| 
C#|-----------------------------------------------------------------------------------------------| 
G#|-----------------------------------------------------------------------------------------------| 
D#|-----------------------------------------------------------------------------------------------| 

====== 

Post Solo ("All these clowns will be...") 

d#|------------------| 
A#|------3-----------| 
F#|-4----0----2----4-| 
C#|-4----0----2----4-| 
G#|-2----2----0----2-| 
D#|------------------| 

====== 

Pre-Chorus 3 ("Britney Spears is makin' out with...") 

            . .            .           . .                 . . 
d#|-----------------------------------------------------------------------| 
A#|-----------------------------------------------------------------------| 
F#|-5--5--5-----5--5--5--5---6-6--6--6-----6--6--6-7--7--7-----7--7--7--7-| 
C#|-5--5--5-----5--5--5--5---6-6--6--6-----6--6--6-7--7--7-----7--7--7--7-| 
G#|-3--3--3-3-3-3--3--3--3-3-4-4--4--4-4-4-4--4--4-5--5--5-5-5-5--5--5--5-| 
D#|-----------------------------------------------------------------------| 

= 

d#|---------------------------------------------| 
A#|---------------------------------------------| 
F#|------------11-14-11-------------------------| 
C#|------10-13----------13-10-------------------| 
G#|-9-12----------------------12-9---------9-12~| 
D#|--------------------------------11-8-11------| 

====== 

Chorus 3 ("I'm goin' to a party...") 

d#|-----------------------------------------------------------------------------------| 
A#|-----------3-3*-----3-3------------------3-3*-----------------------3-3-----3-3----| 
F#|-----------2-2*--2--2-2--2---------------2-2*--2--4p2p0-------------2-2--2--2-2--2-| 
C#|-2----5----0-0*--2--0-0--2-----2----5----0-0*--2--------4p2p0-------0-0--2--0-0--2-| 
G#|-2----5----------0-------0-----2----5----------0--------------4p2p0------0-------0-| 
D#|-0----3--------------------1b--0----3----------------------------------------------| 

====== 

Outro 

gtr 1 
       . .   . .   . .   . .   . . . . . .   . .   . .   . . 
d#|--------------------------------------------------------------------| 
A#|--------------------------------------------------------------------| 
F#|--------4-----5-----2-----4-------------4-----5-----2---------------| 
C#|--------4-----5-----2-----4-------------4-----5-----2-------5---4---| 
G#|-\------2-----3-----0-----2-------------2-----3-----0-----0---0---2-| 
D#|-\--0-0---0-0---0-0---0-0---0-3-2-3-0-0---0-0---0-0---0-0-----------| 

gtr 2 

d#|--------------------------------------------------------------------| 
A#|--------------------------------------------------------------------| 
F#|--------------------------------------------------------------------| 
C#|--------------------------------------------------------------------| 
G#|--------------------------------------------------------------------| 
D#|--------------------------------------------------------------------| 

gtr 3 

d#|--------------------------------------------------------------------| 
A#|--------------------------------------------------------------------| 
F#|--------------------------------------------------------------------| 
C#|--------------------------------------------------------------------| 
G#|--------------------------------------------------------------------| 
D#|--------------------------------------------------------------------| 

= 

gtr 1 
    . .   . .   . .   . .   . . . . . .   . .   . .   . . 
d#|-----------------------------------------------------------------| 
A#|-----------------------------------------------------------------| 
F#|-----4-----5-----2-----4-------------4-----5-----2---------------| 
C#|-----4-----5-----2-----4-------------4-----5-----2-------5---4---| 
G#|-----2-----3-----0-----2-------------2-----3-----0-----0---0---2-| 
D#|-0-0---0-0---0-0---0-0---0-3-2-3-0-0---0-0---0-0---0-0-----------| 

gtr 2 

d#|-17b~----14-15-17-15-15h17p15p14---------------------------------| 
A#|---------------------------------17-16-17b-----------------------| 
F#|----------------------------------------------16~----------------| 
C#|-----------------------------------------------------------------| 
G#|-----------------------------------------------------------------| 
D#|-----------------------------------------------------------------| 

gtr 3 

d#|-----------------------------------------------------------------| 
A#|-----------------------------------------------------------------| 
F#|-14b~----11-12-14-12-12h14p12p11---------------------------------| 
C#|---------------------------------14-13-14b-----------------------| 
G#|----------------------------------------------14~----------------| 
D#|-----------------------------------------------------------------| 

========================================================================================================== 

LEGEND 
------ 

Layout Notation: 

====== - Section, such as Bridge or solo, closed (after correct number of plays, move to the next section) 
=      - Section, such as Bridge or solo, still active: after correct number of plays, move to next bar. 
x(#)   - Repeat as indicated (x3 indicates repeating the riff twice more, etc.) 

Grid Notation: 

~      - vibrato (bend the string and release rapidly) 
*      - deaden note (stop notes from ringing) 
X      - dead string (Mute string with your fretting hand) 
{}     - pinch harmonic (bring the picking thumb across the string after picking note) 
     - natural harmonic (lightly rest fretting finger on string, then pick) 

/      - slide up (higher in pitch)(2/4 indicates fretting the 2nd fret, then sliding to the 4th without 
                a 2nd pick-stroke) 
\      - slide down (lower in pitch)(4/2 indicates fretting the 4th fret, then sliding to the 2nd without 
                a 2nd pick-stroke) 
b      - bend ("16b" would indicate bending the 16th fret) 
r      - release bend ("16br" would indicate bending the 16th fret up, then releasing back to neutral position) 
br     - bend, then release 
brp    - bend, release, then pull; usually in a fluid motion 
h      - hammer-on to indicated fret (0h2 indicates picking open string, then fretting the 2nd fret without 
                a second pick-stroke) 
p      - pull-off to indicated fret (12p10 indicates picking the twelfth fret, then lifting your finger to 
                a pre-fretted 10th fret without a second pickstroke) 
pb     - pre-bend, in some cases signifies a previous bend being held (bend the string before picking) 
pbr    - pre-bend release (bend the string before picking, then release string after picking) 
T      - Tap note with pick or a picking hand finger, usually in a quick hammer-on/pull-off section 
TR     - trill (10TR12 would indicate to hammer and pull continually between the two specified notes) 
trm    - tremolo pick (pick very rapidly) 


Above Grid Notation: 

.      - palm mute (mute the strings with your picking hand while picking) 
\/     - use tremolo bar ("whammy" bar)(either raise or lower the pitch dramatically) 
^      - Upstroke (use an up pick-stroke) 
		  

See also:

tabs Slipknot - My Plague tabs Marilyn Manson - Sweet Dreams tabs Marilyn Manson - Rock Is Dead tabs Pantera - Floods tabs Rainbow - Catch The Rainbow tabs Slipknot - Vermillion Pt. 2 (ver. 3)
e-chords

Other versions:

tabs Steel Panther - Tomorrow Night
auto scroll beats size up size down change color hide chords drawings
tab show chords e-chords YouTube Clip e-chords hide all tabs e-chords go to top tab

share