Steel Panther

Supersonic Sex Machine

Steel Panther

tabs Expert expert

by  JOV-CORREA

save to print version add songbook text version e-mail correct tuner
chordsukulelecavacokeyboardtabbassdrumsharmonicaflute Guitar Pro
close

there isn't a video lesson for this song

chords

Supersonic Sex Machine

	  		

    Section A  x3 
D#|-------------|------------------| 
A#|-------------|------------------| 
F#|-----------7-|------------------| 
C#|-9-7-9-7-9-7-|-9-7-9------------| 
G#|-9-7-9-7-9---|-9-7-9------------| 
D#|-------------|------------------| 

Play Section A again, still 3 times then end with: 
|-----| 
|-----| 
|-9-7-| 
|-9-7-| 
|-7-5-| 
|-----| 

Play Section A again, still 3 times still ending with: 
|-----| 
|-----| 
|-9-7-| 
|-9-7-| 
|-7-5-| 
|-----| 

      Section B               x2 
D#|----------------------------| 
A#|----------------------------| 
F#|-------9-9-9-9--------7-----| 
C#|-7-7-7-9-9-9-9--9-7-9-7-9-7-| 
G#|-7-7-7-7-7-7-7--9-7-9---9-7-| 
D#|-5-5-5----------------------| 

      Section C       ............ 
D#|-------------------------------------------| 
A#|-------------------------------------------| 
F#|------------7-77-7-------------------------| 
C#|-5-55-5-5-5-7-77-7-------------------------| 
G#|-5-55-5-5-5-5-55-5--------------------5-4~-| 
D#|-3-33-3-3-3--------000000000000--3-2~------| 

Play Section A 3x 

Play Section B, then C 

      Section D 
D#|----------------------------------------------| 
A#|----------------------------------------------| 
F#|-----9-9-----9-----9-9-----9-----9-9-12-12-12-| 
C#|-9-9-9-9-7-7-9-9-9-9-9-7-7-9-9-9-9-9-12-12-12-| 
G#|-9-9-7-7-7-7-7-9-9-7-7-7-7-7-9-9-7-7-10-10-10-| 
D#|-7-7-----5-5---7-7-----5-5---7-7--------------| 

Play Section A 3x 
Play Section B 
Play Section C 
Play Section D 
               x2            x2            x2 
D#|-------------|-------------|-------------|---| 
A#|-------------|-------------|-------------|---| 
F#|-----------7-|-------------|-------------|-2-| 
C#|-9-7-9-7-9-7-|-----------4-|-----------5-|-2-| 
G#|-9-7-9-7-9---|-6-4-6-4-6-4-|-7-5-7-5-7-5-|-0-| 
D#|-------------|-6-4-6-4-6---|-7-5-7-5-7---|---| 

D#|-------------------| 
A#|-------------------| 
F#|-2-5-7-9-10-12-5-4-| 
C#|-2-5-7-9-10-12-5-4-| 
G#|-0-3-5-7-8--10-3-2-| 
D#|-------------------| 

Insert Solo Here! 
                                    x2 
D#|------------------------------------| 
A#|------------------------------------| 
F#|-------10-10-10-10--------------8---| 
C#|-8-8-8-10-10-10-10-10-8-10-8-10-8---| 
G#|-8-8-8-8--8--8--8--10-8-10-8-10-----| 
D#|-6-6-6------------------------------| 

      Section C       ............ 
D#|-------------------------------------------| 
A#|-------------------------------------------| 
F#|------------8-88-8-------------------------| 
C#|-6-66-6-6-6-8-88-8-------------------------| 
G#|-6-66-6-6-6-6-66-6--------------------6-5~-| 
D#|-4-44-4-4-4--------111111111111--4-3~------| 

D#|------------------------------------------------------------| 
A#|------------------------------------------------------------| 
F#|-------10-10-----10-------10-10-----10-------10-10-13-13-13-| 
C#|-10-10-10-10-8-8-10-10-10-10-10-8-8-10-10-10-10-10-13-13-13-| 
G#|-10-10-8--8--8-8-8--10-10-8--8--8-8-8--10-10-8--8--11-11-11-| 
D#|-8--8--------6-6----8--8--------6-6----8--8-----------------| 

                 x3 
D#|----------------|----------| 
A#|----------------|----------| 
F#|--------------8-|----------| 
C#|-10-8-10-8-10-8-|-10-10-10-| 
G#|-10-8-10-8-10---|-10-10-10-| 
D#|----------------|----------| 

 
		  

See also:

tabs Slipknot - My Plague tabs Marilyn Manson - Sweet Dreams tabs Marilyn Manson - Rock Is Dead tabs Pantera - Floods tabs Rainbow - Catch The Rainbow tabs Slipknot - Vermillion Pt. 2 (ver. 3)
e-chords

Other versions:

tabs Steel Panther - Supersonic Sex Machine
auto scroll beats size up size down change color hide chords drawings
tab show chords e-chords YouTube Clip e-chords hide all tabs e-chords go to top tab

share