Steel Panther

Party All Day Fuck All Night

Steel Panther

tabs

by  TAMAMOREIRA

save to print version add songbook text version e-mail correct tuner
chordsukulelecavacokeyboardtabbassdrumsharmonicaflute Guitar Pro
close

there isn't a video lesson for this song

chords

Party All Day Fuck All Night

	  		
Intro 

gtr 1 
                                                                                                    x2 
d#|-------------------------------------------------------------------------------------------------| 
A#|-------------------------------------------------------------------------------------------------| 
F#|-------------------------------------------------------------------------------------------------| 
C#|-------------------------------------------------------------------------------------------------| 
G#|-------------------------------------------------------------------------------------------------| 
D#|-------------------------------------------------------------------------------------------------| 

keyboard 
                                                                                                    x2 
d#|-18-18-18-19-19-19-19-19-16-16-16-18-18-18-18-18-14-14-14-16-16-16-16-16-13-13-13-14-14-14-14-14-| 
A#|-16-16-16-16-16-16-16-16-16-16-16-16-16-16-16-16-16-16-16-16-16-16-16-16-16-16-16-16-16-16-16-16-| 
F#|-------------------------------------------------------------------------------------------------| 
C#|-------------------------------------------------------------------------------------------------| 
G#|-------------------------------------------------------------------------------------------------| 
D#|-------------------------------------------------------------------------------------------------| 

====== 

Pre-verse 1 

gtr 1 (with talkbox) 

d#|----------------------------------------------------------------------------| 
A#|----------------------------------------------------------------------------| 
F#|----------------------------------------------------------------------------| 
C#|----------------------------------------------------------------------------| 
G#|-6---4-{6}~----4-6--6---4-{6}~----4-6--6---4-{6}~----4-6--6---4-{6}~----4-6-| 
D#|---6---------6--------6---------6--------6---------6--------6---------6-----| 

====== 

verse 1 ("When I was only three...") 

d#|----------------------------------------------------------| 
A#|-8----4----6----11-------7-6-7-4-----6-7-6----------------| 
F#|-8----4----6----11----4--6-6-6-6--6--8-8-8--8--8-8--6h8-8-| 
C#|-8----4----6----11----4--4-4-4-4--6--6-6-6--8--8-8--6h8-8-| 
G#|-6----2----4----9-----------------------------------------| 
D#|----------------------------------------------------------| 

= 

d#|----------------------------------------------------------| 
A#|-8----4----6----11-------7-6-7-4-----6--6-6-7-6--7--7-7-7-| 
F#|-8----4----6----11----4--6-6-6-6--6--8--8-8-8-8--6--6-6-6-| 
C#|-8----4----6----11----4--4-4-4-4--6--6--6-6-6-6--4--4-4-4-| 
G#|-6----2----4----9-----------------------------------------| 
D#|----------------------------------------------------------| 

====== 

Pre-Chorus 1 

d#|------------------------------------------------------| 
A#|-12-11--9---11-12--11--9--11--14-13--11--13-14--13-14-| 
F#|-11-11--11--11-11--11--11-11--13-13--13--13-13--13-13-| 
C#|-9--9---9---9--9---9---9--9---11-11--11--11-11--11-11-| 
G#|------------------------------------------------------| 
D#|------------------------------------------------------| 

====== 

Chorus 1 ("Whoa-oh-ohh hey hey hey...") 

d#|----------------------------------------------------------------------------| 
A#|----------------------------------------------------------------------------| 
F#|-8--/4----6*-6*--------------4--4-4--6----8--/4----6*-6*--------------4*--6-| 
C#|-8--/4----6*-6*----4----4----4--4-4--6----8--/4----6*-6*----4----4----4*--6-| 
G#|-6--/2----4*-4*----4----4----2--2-2--4----6--/2----4*-4*----4----4----2*--4-| 
D#|-------------------2----2-----------------------------------2----2----------| 

====== 

Pre-verse 2  

gtr 1 (with talkbox) 

d#|----------------------------------------------------------------------------| 
A#|----------------------------------------------------------------------------| 
F#|----------------------------------------------------------------------------| 
C#|----------------------------------------------------------------------------| 
G#|-6---4-{6}~----4-6--6---4-{6}~----4-6--6---4-{6}~----4-6--6---4-{6}~----4-6-| 
D#|---6---------6--------6---------6--------6---------6--------6---------6-----| 

====== 

verse 2 ("Now I'm in a bitchin' band...") 

d#|----------------------------------------------------------| 
A#|-8----4----6----11-------7-6-7-4-----6-7-6----------------| 
F#|-8----4----6----11----4--6-6-6-6--6--8-8-8--8--8-8--6h8-8-| 
C#|-8----4----6----11----4--4-4-4-4--6--6-6-6--8--8-8--6h8-8-| 
G#|-6----2----4----9-----------------------------------------| 
D#|----------------------------------------------------------| 

= 

d#|----------------------------------------------------------| 
A#|-8----4----6----11-------7-6-7-4-----6--6-6-7-6--7--7-7-7-| 
F#|-8----4----6----11----4--6-6-6-6--6--8--8-8-8-8--6--6-6-6-| 
C#|-8----4----6----11----4--4-4-4-4--6--6--6-6-6-6--4--4-4-4-| 
G#|-6----2----4----9-----------------------------------------| 
D#|----------------------------------------------------------| 

====== 

Pre-Chorus 2 

d#|------------------------------------------------------| 
A#|-12-11--9---11-12--11--9--11--14-13--11--13-14--13-14-| 
F#|-11-11--11--11-11--11--11-11--13-13--13--13-13--13-13-| 
C#|-9--9---9---9--9---9---9--9---11-11--11--11-11--11-11-| 
G#|------------------------------------------------------| 
D#|------------------------------------------------------| 

====== 

Chorus 2 ("Whoa-oh-ohh hey hey hey...") 

d#|----------------------------------------------------------------------------| 
A#|----------------------------------------------------------------------------| 
F#|-8--/4----6*-6*--------------4--4-4--6----8--/4----6*-6*--------------4*--6-| 
C#|-8--/4----6*-6*----4----4----4--4-4--6----8--/4----6*-6*----4----4----4*--6-| 
G#|-6--/2----4*-4*----4----4----2--2-2--4----6--/2----4*-4*----4----4----2*--4-| 
D#|-------------------2----2-----------------------------------2----2----------| 

====== 

Pre-solo 

keyboard 

d#|-----------------------------------| 
A#|-12---9---11---7---9---6---7---4---| 
F#|-------------------------4---4---4-| 
C#|----9---9----9---9---9-------------| 
G#|-----------------------------------| 
D#|-----------------------------------| 
The low notes are all A#, I just moved it part-way through to set it up for easier fretting. 

====== 

Solo Rhythm 

d#|---------------------------------------------------------------------------------| 
A#|---------------------------------------------------------------------------------| 
F#|-8--/4----6*-6*--------------4--4-4--6----8--/4----6*-6*--------------4*--4-4--8-| 
C#|-8--/4----6*-6*----4----4----4--4-4--6----8--/4----6*-6*----4----4----4*--4-4--8-| 
G#|-6--/2----4*-4*----4----4----2--2-2--4----6--/2----4*-4*----4----4----2*--2-2--6-| 
D#|-------------------2----2-----------------------------------2----2---------------| 

====== 

Solo 

gtr 2 

d#|-------------------------------------------10-12-13~----------------------| 
A#|--------13b~--13pbr-13-13p11-11\10-10~--10------------13-10-11~--10----13~| 
F#|-7-9-10-------------------------------------------------------------10----| 
C#|--------------------------------------------------------------------------| 
G#|--------------------------------------------------------------------------| 
D#|--------------------------------------------------------------------------| 

= 
gtr 2 (cont'd) 

d#|-------------------------------------------10-12-13~------------------------------------| 
A#|--------13b~--13pbr-13-13p11-11\10-10~--10------------13-10-11~--10---------------------| 
F#|-7-9-10-------------------------------------------------------------10--12b-12pbrp10----| 
C#|-------------------------------------------------------------------------------------12~| 
G#|----------------------------------------------------------------------------------------| 
D#|----------------------------------------------------------------------------------------| 

====== 

Pre-Chorus 3 ("Now god is lookin' down on me...") 

d#|------------------------------------------------------| 
A#|-12-11--9---11-12--11--9--11--14-13--11--13-14--13-14-| 
F#|-11-11--11--11-11--11--11-11--13-13--13--13-13--13-13-| 
C#|-9--9---9---9--9---9---9--9---11-11--11--11-11--11-11-| 
G#|------------------------------------------------------| 
D#|------------------------------------------------------| 

====== 

Chorus 2 ("Whoa-oh-ohh hey hey hey...") 

gtr 1 
                                                                               x2 
d#|----------------------------------------------------------------------------| 
A#|----------------------------------------------------------------------------| 
F#|-9--/5----7*-7*--------------5--5-5--7----9--/5----7*-7*--------------5*--7-| 
C#|-9--/5----7*-7*----5----5----5--5-5--7----9--/5----7*-7*----5----5----5*--7-| 
G#|-7--/3----5*-5*----5----5----3--3-3--5----7--/3----5*-5*----5----5----3*--5-| 
D#|-------------------3----3-----------------------------------3----3----------| 

gtr 2 
                                                                               x2 
d#|----------------------------------------------------------------------------| 
A#|----------------------------------------------------------------------------| 
F#|----------------------------------------------------------------------------| 
C#|----------------------------------------------------------------------------| 
G#|----------------------------------------------------------------------------| 
D#|----------------------------------------------------------------------------| 

= 

gtr 1 

d#|----------------------------------------------------------------------------| 
A#|----------------------------------------------------------------------------| 
F#|-9--/5----7*-7*--------------5--5-5--7----9--/5----7*-7*--------------5*--7-| 
C#|-9--/5----7*-7*----5----5----5--5-5--7----9--/5----7*-7*----5----5----5*--7-| 
G#|-7--/3----5*-5*----5----5----3--3-3--5----7--/3----5*-5*----5----5----3*--5-| 
D#|-------------------3----3-----------------------------------3----3----------| 

gtr 2 

d#|---------------------------------------------------------15h17p15p14-15----14----------------| 
A#|------------------------------------------------------------------------17----15-17-14-15----| 
F#|------------------------12~--14-12--<17>b--<17>br~-14b~-----------------------------------14~| 
C#|-12h14-14/17-17\14--14~----------------------------------------------------------------------| 
G#|---------------------------------------------------------------------------------------------| 
D#|---------------------------------------------------------------------------------------------| 

= 

gtr 1 

d#|----------------------------------------------------------------------------| 
A#|----------------------------------------------------------------------------| 
F#|-9--/5----7*-7*--------------5--5-5--7----9--/5----7*-7*--------------5*--7-| 
C#|-9--/5----7*-7*----5----5----5--5-5--7----9--/5----7*-7*----5----5----5*--7-| 
G#|-7--/3----5*-5*----5----5----3--3-3--5----7--/3----5*-5*----5----5----3*--5-| 
D#|-------------------3----3-----------------------------------3----3----------| 

gtr 2 

d#|------12-12------12------12-----12---------------------------------------------------------------------| 
A#|-15b--------15b-----15b-----15b----15b--15br-12-----12-------------------------------------------------| 
F#|------------------------------------------------14b----14-12-------------12h14-12~---------------------| 
C#|-------------------------------------------------------------14-12-14-12------------9-7-9br-7--------7~| 
G#|----------------------------------------------------------------------------------------------9-7-9----| 
D#|-------------------------------------------------------------------------------------------------------| 

========================================================================================================== 

LEGEND 
------ 

Layout Notation: 

====== - Section, such as Bridge or solo, closed (after correct number of plays, move to the next section) 
=      - Section, such as Bridge or solo, still active: after correct number of plays, move to next bar. 
x(#)   - Repeat as indicated (x3 indicates repeating the riff twice more, etc.) 

Grid Notation: 

~      - vibrato (bend the string and release rapidly) 
*      - deaden note (stop notes from ringing) 
X      - dead string (Mute string with your fretting hand) 
{}     - pinch harmonic (bring the picking thumb across the string after picking note) 
     - natural harmonic (lightly rest fretting finger on string, then pick) 

/      - slide up (higher in pitch)(2/4 indicates fretting the 2nd fret, then sliding to the 4th without 
                a 2nd pick-stroke) 
\      - slide down (lower in pitch)(4/2 indicates fretting the 4th fret, then sliding to the 2nd without 
                a 2nd pick-stroke) 
b      - bend ("16b" would indicate bending the 16th fret) 
r      - release bend ("16br" would indicate bending the 16th fret up, then releasing back to neutral position) 
br     - bend, then release 
brp    - bend, release, then pull; usually in a fluid motion 
h      - hammer-on to indicated fret (0h2 indicates picking open string, then fretting the 2nd fret without 
                a second pick-stroke) 
p      - pull-off to indicated fret (12p10 indicates picking the twelfth fret, then lifting your finger to 
                a pre-fretted 10th fret without a second pickstroke) 
pb     - pre-bend, in some cases signifies a previous bend being held (bend the string before picking) 
pbr    - pre-bend release (bend the string before picking, then release string after picking) 
T      - Tap note with pick or a picking hand finger, usually in a quick hammer-on/pull-off section 
TR     - trill (10TR12 would indicate to hammer and pull continually between the two specified notes) 
trm    - tremolo pick (pick very rapidly) 


Above Grid Notation: 

.      - palm mute (mute the strings with your picking hand while picking) 
\/     - use tremolo bar ("whammy" bar)(either raise or lower the pitch dramatically) 
^      - Upstroke (use an up pick-stroke) 
		  

See also:

tabs Dream Theater - Silent Man tabs Rainbow - All Night Long tabs Slipknot - Before I Forget tabs Rainbow - Man On A Silver Mountain tabs Marilyn Manson - Coma White tabs Dream Theater - Through her eyes
e-chords

Other versions:

tabs Steel Panther - Party All Day Fuck All Night
auto scroll beats size up size down change color hide chords drawings
tab show chords e-chords YouTube Clip e-chords hide all tabs e-chords go to top tab

share