Steel Panther

I Want It That Way

Steel Panther

tabs

by  TERCMORAES

save to print version add songbook text version e-mail correct tuner
chordsukulelecavacokeyboardtabbassdrumsharmonicaflute Guitar Pro
close

there isn't a video lesson for this song

chords

I Want It That Way

	  		


Intro/Verse 

e|------------------------------------| 
B|------------------------------------| 
G|---7-9\----9---8-9-----5------------| 
D|---5-7\----7---7-7-----3-3-3-5------| 
A|---------0---0-----0-0-------3-3-3--| 
E|------------------------------------| 

e|-------------------------------------| 
B|-------------------------------------| 
G|---7-9\----9---8-9-----5-----7-------| 
D|---5-7\----7---7-7-----3-3-3-5-5-5---| 
A|---------0---0-----0-0---------------| 
E|-------------------------------------| 

e|------------------------------------| 
B|------------------------------------| 
G|---7-9\----9---8-9-----5------------| 
D|---5-7\----7---7-7-----3-3-3-5------| 
A|---------0---0-----0-0-------3-3-3--| 
E|------------------------------------| 

e|----------------------------------| 
B|----------------------------------| 
G|----------------------------------| 
D|---3---------------2--------------| 
A|---3-3-3-3-3-3-3-3-2-2-2-2-2-2----| 
E|---1-1-1-1-1-1-1-1-0-0-0-0-0-0----| 


Chorus 

e|----------------------------------| 
B|----------------------------------| 
G|--------------2---------------2---| 
D|---5-3----5---2-----5-3----2--2---| 
A|---5-3----5---0-----5-3----2--0---| 
E|---3-1----3---------3-1----0------| 

e|-------------------------------------------------| 
B|-------------------------------------------------| 
G|--------------2----------------------------------| 
D|---5-3----5---2----3---------------2-------------| 
A|---5-3----5---0----3-3-3-3-3-3-3-3-2-2-2-2-2-2---| 
E|---3-1----3--------1-1-1-1-1-1-1-1-0-0-0-0-0-0---| 


Bridge 
          Pinch harmonics-* 
e|----------------------------------------------------------------| 
B|----------------------------------------------------------------| 
G|---5-4--2-----------2*------------2*------------2*--------------| 
D|---5-4--2-2-2-2-2-2---5-------------3-------------2-------------| 
A|---3-2--0-0-0-0-0-0---5-5-5-5-5-5---3-3-3-3-3-3---2-2-2-2-2-2---| 
E|----------------------3-3-3-3-3-3---1-1-1-1-1-1---0-0-0-0-0-0---| 

e|------------------------------------------------------------------------| 
B|------------------------------------------------------------------------| 
G|---------2-----------2*------------2*------------2*---------------------| 
D|---------2-2-2-2-2-2---5-------------3-------------2-2--2-2--2-2--2-2---| 
A|--2*-3*--0-0-0-0-0-0---5-5-5-5-5-5---3-3-3-3-3-3---2-2--2-2--2-2--2-2---| 
E|-----------------------3-3-3-3-3-3---1-1-1-1-1-1---0-0--0-0--0-0--0-0---| 


Verse 3/bridge 2 
i tried to sync these tabs so you see what each guitar is playing what and when 

   Guitar 1 (Dist) 
e|--------------------------------------------------------------------------| 
B|--------------------------------------------------------------------------| 
G|--7-9-------------------------7-9-----------------------------------------| 
D|--5-7-------------------------5-7------------3---------------2------------| 
A|---------------------------------------------3-3-3-3-3-3-3-3-2-2-2-2-2-2--| 
E|---------------------------------------------1-1-1-1-1-1-1-1-0-0-0-0-0-0--| 
 | Guitar 2 (Clean)                                                         | 
e|--------------------------------------------------------------------------| 
B|--------------------------------------------------------------------------| 
G|------9--9--5--5---9--9--5--7-----9--9--5--5------------------------------| 
D|------7--7--3--5---7--7--3--5-----7--7--3--5------------------------------| 
A|--------------------------------------------------------------------------| 
E|--------------------------------------------------------------------------| 
 | Guitar 3 (Lead)                                                          | 
e|-----12----/15----\12----/15----\12----/15----\12-------------------------| 
B|--------------------------------------------------------------------------| 
G|--------------------------------------------------------------------------| 
D|--------------------------------------------------------------------------| 
A|--------------------------------------------------------------------------| 
E|--------------------------------------------------------------------------| 


Final Chorus 
They raise the Key a whole step here 

e|----------------------------------| 
B|----------------------------------| 
G|---2------2---4-----2---------4---| 
D|---2-5----2---4-----2-5----4--4---| 
A|---0-5----0---2-----0-5----4--2---| 
E|-----3----------------3----2------| 

e|-------------------------------------------------| 
B|-------------------------------------------------| 
G|---2------2---4----------------------------------| 
D|---2-5----2---4----5---------------4-------------| 
A|---0-5----0---2----5-5-5-5-5-5-5-5-4-4-4-4-4-4---| 
E|-----3-------------3-3-3-3-3-3-3-3-2-2-2-2-2-2---| 


Outro 

  Guitar 1  
e|------------------------------------------| 
B|------------------------------------------| 
G|---7--2--4---2------------------7--2--4---| 
D|---7--2--4---2---5---4---2------7--2--4---| 
A|---5--0--2---0---5---4---2------5--0--2---| 
E|-----------------3---2---0----------------| 

  Guitar 2  
e|--------------------------------------------------------| 
B|---12-15-14-15-----15-14-15-----15-14-15-----15-14-15---| 
G|----------------14-----------12-----------11------------| 
D|--------------------------------------------------------| 
A|--------------------------------------------------------| 
E|--------------------------------------------------------| 

e|---------------14-------------------------19-17-19---| 
B|------15-14-15----15-14-15--12-15-14-15--------------| 
G|-----------------------------------------------------| 
D|---14------------------------------------------------| 
A|-----------------------------------------------------| 
E|-----------------------------------------------------|  
		  

auto scroll beats size up size down change color hide chords drawings
tab show chords e-chords YouTube Clip e-chords hide all tabs e-chords go to top tab

share