Steel Panther

I Like Drugs

Steel Panther

tabs

by  PAULANTUNES

save to print version add songbook text version e-mail correct tuner
chordsukulelecavacokeyboardtabbassdrumsharmonicaflute Guitar Pro
close

there isn't a video lesson for this song

chords

I Like Drugs

	  		
                                                        \1/            
      Q    Q    Q     Q        W                   Q    H.             
D#||------------------------|-------------------|--------------------| 
A#||------------------------|--3----------------|--L-----------------| 
F#||------------------------|--0----------------|--0----L------------| 
C#||------------------------|--0----------------|--0----L------------| 
G#||-----------------12\----|-------------------|--------------------|
D#||------------------------|--3----------------|--L-----------------| 


  \1/                                                                       
  H        Q    E  E     E  E  Q    E  E  E  E     E  E  Q    E  E  E  E    
----------------------|-------------------------|-------------------------| 
----------------------|-------------------------|-------------------------| 
--0--------L-------4--|--L-----2-------------4--|--L-----2-------------4--| 
-------------------2--|--L--2--0-------------2--|--L--2--0-------------2--| 
----------------------|-------------4--2--0-----|-------------4--2--0-----| 
----------------------|-------------------------|-------------------------| 


  E  E  Q    E  E  E  E     Q     Q     Q    E  E     Q    E  E  Q    E  E    
-------------------------|-------------------------|------------------------| 
-------------------------|-------------------------|------------------------| 
--L-----2----------------|----------------------4--|-------4-----4-------x--| 
--L--2--0----------------|----------------------2--|-------2-----2-------x--| 
-------------4--2--0--2--|--------------2----------|------------------------| 
-------------------------|--3b----3b----0----------|------------------------| 


  E  E  E  E  E  E  E  E     Q    Q    Q    E  E      E  E  E  E   E  E  E  E    
--------------------------|------------------------|---------------------------| 
--------------------------|-------3----2-----------|---------------------------| 
--4--4-----4--L--------2--|-------2----2-----------|------------------------4--| 
--1--1-----2--L--------2--|-------4----2-----------|------------------------2--| 
-----------------------0--|-------0----0----2--4s--|--5--4--2------------------| 
--------------------------|------------------------|-----------3b--L-----------| 


  Q    E  E  Q    E  E     E  E  E  E  E  E  E  E     Q    Q    Q    E  E     
------------------------|--------------------------|------------------------| 
------------------------|--------------------------|-------3----2-----------| 
-------4-----4-------x--|--4--4-----4--L--------2--|-------2----2-----------| 
-------2-----2-------x--|--1--1-----2--L--------2--|-------4----2-----------| 
------------------------|-----------------------0--|-------0----0----2--4s--| 
------------------------|--------------------------|------------------------| 


  E  E  E  E   Q    E  E     Q    E  E  Q    E  E     E  E  E  E  E  E  E  E    
--------------------------|------------------------|--------------------------| 
--------------------------|------------------------|--------------------------| 
-----------------------4--|-------4-----4-------x--|--4--4-----4--L--------2--| 
-----------------------2--|-------2-----2-------x--|--1--1-----2--L--------2--| 
--5--4--2-----------------|------------------------|-----------------------0--| 
-----------3b--L----------|------------------------|--------------------------| 


  Q    Q    Q    E  E     E  E  E  E   Q    E  E     E  E  E  E  E  E  E  E    
-----------------------|--------------------------|--------------------------| 
-------3----2----------|--------------------------|--------------------------| 
-------2----2----------|-----------------------6--|--L--6--6--6--6--6--6--7--| 
-------4----2----------|-----------------------6--|--L--6--6--6--6--6--6--7--| 
-------0----0----2--4--|--5--4--2--------------4--|--L--4--4--4--4--4--4--5--| 
-----------------------|-----------3b--L----------|--------------------------| 


  E  E  E  E  E  E  E  E     E  E  E  E  E  E  E  E    
--------------------------|--------------------------| 
--------------------------|--------------------------| 
--L--7--7--7--7--7--7--2--|--L--2--2--2--2--2--2-----| 
--L--7--7--7--7--7--7--2--|--L--2--2--2--2--2--2-----| 
--L--5--5--5--5--5--5--0--|--L--0--0--0--0--0--0--2--| 
--------------------------|--------------------------| 


  E  E  E  E  E  E  E  E     Q    E  E  E  E  E  E     E  E  E  E  Q    E  E    
--------------------------|-------------------------|-------------------------| 
--------------------------|-------------------------|-------------------------| 
-----------------7-----4--|--L----------4-----------|--4--4----------------4--| 
--5--5--5--------7-----4--|--L----2-----4-----------|--4--4-----2--L-------4--| 
--3--3--3--5-----5-----2--|--L----2-----2-----2--2--|--2--2-----2--L-------2--| 
-----------3--------------|-------0-----------0--0--|-----------0--L----------| 


  Q    E  E  E  E  E  E     Q    Q    Q    E  E     Q    E  E  E  E  E  E    
-------------------------|-----------------------|-------------------------| 
-------------------------|-----------------------|-------------------------| 
--L----------4-----------|--2----2------------4--|--L----------4--------4--| 
--L----2-----4-----------|--2----2----2-------4--|--L----2-----4--------4--| 
--L----2-----2-----2--2--|--0----0----2-------2--|--L----2-----2--------2--| 
-------0-----------0--0--|------------0----------|-------0-----------------| 


  Q    E  E  E  E  E  E     Q    E  E  E  E  E  E     H        Q    E  E    
-------------------------|-------------------------|----------------------| 
-------------------------|-------------------------|----------------------| 
--L----------4--------4--|--L----------4-----4--2--|--2--------2----L--4--| 
--L----2-----4--------4--|--L----2-----4-----4--2--|--2--------2----L--2--| 
--L----2-----2--------2--|--L----2-----2-----2--0--|--0--------0----L-----| 
-------0-----------------|-------0-----------------|----------------------| 


  E  E  Q    E  E  E  E     E  E  Q    E  E  E  E     E  E  Q    E  E  E  E    
-------------------------|-------------------------|-------------------------| 
-------------------------|-------------------------|-------------------------| 
--L-----2-------------4--|--L-----2-------------4--|--L-----2----------------| 
--L--2--0-------------2--|--L--2--0-------------2--|--L--2--0----------------| 
-------------4--2--0-----|-------------4--2--0-----|-------------4--2--0--2--| 
-------------------------|-------------------------|-------------------------| 


  Q     Q     Q    E  E     Q    E  E  Q    E  E     E  E  E  E  E  E  E  E    
-------------------------|------------------------|--------------------------| 
-------------------------|------------------------|--------------------------| 
----------------------4--|-------4-----4-------x--|--4--4-----4--L--------2--| 
----------------------2--|-------2-----2-------x--|--1--1-----2--L--------2--| 
--------------2----------|------------------------|-----------------------0--| 
--3b----3b----0----------|------------------------|--------------------------| 


  Q    Q    Q    E  E     E  E  E  E   E  E  E  E     Q    E  E  Q    E  E    
-----------------------|---------------------------|------------------------| 
-------3----2----------|---------------------------|------------------------| 
-------2----2----------|------------------------4--|-------4-----4-------x--| 
-------4----2----------|------------------------2--|-------2-----2-------x--| 
-------0----0----2--4--|--5--4--2------------------|------------------------| 
-----------------------|-----------3b--L--0--------|------------------------| 


  E  E  E  E  E  E  E  E     Q    Q    Q    E  E     E  E  E  E   E  E  E  E    
--------------------------|-----------------------|---------------------------| 
--------------------------|-------3----2----------|---------------------------| 
--4--4-----4--L--------2--|-------2----2----------|------------------------4--| 
--1--1-----2--L--------2--|-------4----2----------|------------------------2--| 
-----------------------0--|-------0----0----2--4--|--5--4--2------------------| 
--------------------------|-----------------------|-----------3b--L--0--------| 


  Q    E  E  Q    E  E     E  E  E  E  E  E  E  E     Q    Q    Q    E  E    
------------------------|--------------------------|-----------------------| 
------------------------|--------------------------|-------3----2----------| 
-------4-----4-------x--|--4--4-----4--L--------2--|-------2----2----------| 
-------2-----2-------x--|--1--1-----2--L--------2--|-------4----2----------| 
------------------------|-----------------------0--|-------0----0----2--4--| 
------------------------|--------------------------|-----------------------| 


  E  E  E  E   E  E  E  E     E  E  E  E  E  E  E  E    
---------------------------|--------------------------| 
---------------------------|--------------------------| 
------------------------6--|--L--6--6--6--6--6--6--7--| 
------------------------6--|--L--6--6--6--6--6--6--7--| 
--5--4--2---------------4--|--L--4--4--4--4--4--4--5--| 
-----------3b--L--0--------|--------------------------| 


  E  E  E  E  E  E  E  E     E  E  E  E  E  E  E  E    
--------------------------|--------------------------| 
--------------------------|--------------------------| 
--L--7--7--7--7--7--7--2--|--L--2--2--2--2--2--2-----| 
--L--7--7--7--7--7--7--2--|--L--2--2--2--2--2--2-----| 
--L--5--5--5--5--5--5--0--|--L--0--0--0--0--0--0--2--| 
--------------------------|--------------------------| 


  E  E  E  E  E  E  E  E     Q    E  E  E  E  E  E     E  E  E  E  Q    E  E    
--------------------------|-------------------------|-------------------------| 
--------------------------|-------------------------|-------------------------| 
-----------------7-----4--|--L----------4-----------|--4--4----------------4--| 
--5--5--5--------7-----4--|--L----2-----4-----------|--4--4-----2--L-------4--| 
--3--3--3--5-----5-----2--|--L----2-----2-----2--2--|--2--2-----2--L-------2--| 
-----------3--------------|-------0-----------0--0--|-----------0--L----------| 


  Q    E  E  E  E  E  E     Q    Q    Q    E  E     Q    E  E  E  E  E  E    
-------------------------|-----------------------|-------------------------| 
-------------------------|-----------------------|-------------------------| 
--L----------4-----------|--2----2------------4--|--L----------4--------4--| 
--L----2-----4-----------|--2----2----2-------4--|--L----2-----4--------4--| 
--L----2-----2-----2--2--|--0----0----2-------2--|--L----2-----2--------2--| 
-------0-----------0--0--|------------0----------|-------0-----------------| 


  Q    E  E  E  E  E  E     Q    E  E  E  E  E  E     H        Q    E  E    
-------------------------|-------------------------|----------------------| 
-------------------------|-------------------------|----------------------| 
--L----------4--------4--|--L----------4-----4--2--|--2--------2----L--7--| 
--L----2-----4--------4--|--L----2-----4-----4--2--|--2--------2----L--7--| 
--L----2-----2--------2--|--L----2-----2-----2--0--|--0--------0----L--5--| 
-------0-----------------|-------0-----------------|----------------------| 


  W                   H        Q    E  E     E  E  E  E  E  E  E  E    
-------------------|----------------------|--------------------------| 
-------------------|----------------------|--------------------------| 
--L----------------|--L--------L-------6--|--L--6--6--6--6--6--6--6--| 
--L----------------|--L--------L-------6--|--L--6--6--6--6--6--6--6--| 
--L----------------|--L--------L-------4--|--L--4--4--4--4--4--4--4--| 
-------------------|-------------------4--|--L--4--4--4--4--4--4--4--| 


  E  E  E  E  E  E  E  E     E  E  E  E  E  E  E  E    
--------------------------|--------------------------| 
--------------------------|--------------------------| 
--6--6--6--6--6--5--4--2--|--L--2--2--2--2-----------| 
--6--6--6--6--6--5--4--2--|--L--2--2--2--2--------4--| 
--4--4--4--4--4--3--2--0--|--L--0--0--0--0--6--5--4--| 
--4--4--4--4--4--3--2-----|-----------------4--3--2--| 


  E  E  E  E  E  E  E  E     E  E  E  E  E  E  E  E    
--------------------------|--------------------------| 
--------------------------|--------------------------| 
-----------------------6--|--L--6--6--6--6--6--6--6--| 
--4--4--4--4--4--4--4--6--|--L--6--6--6--6--6--6--6--| 
--4--4--4--4--4--4--4--4--|--L--4--4--4--4--4--4--4--| 
--2--2--2--2--2--2--2--4--|--L--4--4--4--4--4--4--4--| 


  E  E  E  E  E  E  E  E     E  E  E  E  E  E  E  E    
--------------------------|--------------------------| 
--------------------------|--------------------------| 
--6--6--6--6--6--5--4--2--|--L--2--2--2--2-----------| 
--6--6--6--6--6--5--4--2--|--L--2--2--2--2--------4--| 
--4--4--4--4--4--3--2--0--|--L--0--0--0--0--6--5--4--| 
--4--4--4--4--4--3--2-----|-----------------4--3--2--| 


  E  E  E  E  E  E  E  E     E  E  E  E  E  E  E  E    
--------------------------|--------------------------| 
--------------------------|--------------------------| 
-----------------------6--|--L--6--6--6--6--6--6--6--| 
--L--4--4--4--4--4--4--6--|--L--6--6--6--6--6--6--6--| 
--L--4--4--4--4--4--4--4--|--L--4--4--4--4--4--4--4--| 
--L--2--2--2--2--2--2-----|--------------------------| 


  E  E  E  E  E  E  E  E     E  E  E  E  E  E  E  E    
--------------------------|--------------------------| 
--------------------------|--------------------------| 
--6--6--6--6--6--5--4--2--|--L--2--2--2--2-----------| 
--6--6--6--6--6--5--4--2--|--L--2--2--2--2--------4--| 
--4--4--4--4--4--3--2--0--|--L--0--0--0--0--6--5--4--| 
--------------------------|-----------------4--3--2--| 


  E  E  E  E  E  E  E  E     E  E  E  E  E  E  E  E    
--------------------------|--------------------------| 
--------------------------|--------------------------| 
-----------------------6--|--L--6--6--6--6--6--6--6--| 
--4--4--4--4--4--4--4--6--|--L--6--6--6--6--6--6--6--| 
--4--4--4--4--4--4--4--4--|--L--4--4--4--4--4--4--4--| 
--2--2--2--2--2--2--2-----|--------------------------| 


  E  E  E  E  E  E  E  E     E  E  E  E  E  E  E  E    
--------------------------|--------------------------| 
--------------------------|--------------------------| 
--L--6--6--6--6--5--4--2--|--L--2--2--2--2-----------| 
--L--6--6--6--6--5--4--2--|--L--2--2--2--2--------4--| 
--L--4--4--4--4--3--2--0--|--L--0--0--0--0--6--5--4--| 
--------------------------|-----------------4--3--2--| 


  E  E  E  E  E  E  E  E     E  E  E  E  E  E  E  E    
--------------------------|--------------------------| 
--------------------------|--------------------------| 
-----------------------7--|--7--7--7--7--7--7--7--2--| 
--4--4--4--4--4--4--4--7--|--7--7--7--7--7--7--7--2--| 
--4--4--4--4--4--4--4--5--|--5--5--5--5--5--5--5--0--| 
--2--2--2--2--2--2--2-----|--------------------------| 


  E  E  E  E  E  E  E  E     E  E  Q    E  E  E  E     E  E  Q    E  E  E  E    
--------------------------|-------------------------|-------------------------| 
--------------------------|-------------------------|-------------------------| 
--2--2--2--2--2--2--2--4--|--L-----2-------------4--|--L-----2-------------7--| 
--2--2--2--2--2--2--2--2--|--L--2--0-------------2--|--L--2--0-------------7--| 
--0--0--0--0--0--0--0-----|-------------4--2--0-----|-------------4--2--0--5--| 
--------------------------|-------------------------|-------------------------| 


  E  E  E  E  E  E  E  E     E  E  E  E  E  E  E  E     E  E  Q    E  E  E  E    
--------------------------|--------------------------|-------------------------| 
--------------------------|--------------------------|-------------------------| 
--7--7--7--7--7--7--7--2--|--2--2--2--2--2--2--2--4--|--L-----2-------------4--| 
--7--7--7--7--7--7--7--2--|--2--2--2--2--2--2--2--2--|--L--2--0-------------2--| 
--5--5--5--5--5--5--5--0--|--0--0--0--0--0--0--0-----|-------------4--2--0-----| 
--------------------------|--------------------------|-------------------------| 


  E  E  Q    E  E  E  E     E  E  E  E  E  E  E  E     E  E  E  E  E  E  E  E    
-------------------------|--------------------------|--------------------------| 
-------------------------|--------------------------|--------------------------| 
--L-----2-------------7--|--7--7--7--7--7--7--7--2--|--2--2--2--2--2--2--2--4--| 
--L--2--0-------------7--|--7--7--7--7--7--7--7--2--|--2--2--2--2--2--2--2--2--| 
-------------4--2--0--5--|--5--5--5--5--5--5--5--0--|--0--0--0--0--0--0--0-----| 
-------------------------|--------------------------|--------------------------| 


  Q    E  E  Q    E  E     E  E  E  E  E  E  E  E     Q    Q    Q    E  E    
------------------------|--------------------------|-----------------------| 
------------------------|--------------------------|-------3----2----------| 
-------4-----4-------x--|--4--4-----4--L--------2--|-------2----2----------| 
-------2-----2-------x--|--1--1-----2--L--------2--|-------4----2----------| 
------------------------|-----------------------0--|-------0----0----2--4--| 
------------------------|--------------------------|-----------------------| 


  E  E  E  E   E  E  E  E     Q    E  E  Q    E  E     E  E  E  E  E  E  E  E    
---------------------------|------------------------|--------------------------| 
---------------------------|------------------------|--------------------------| 
------------------------4--|-------4-----4-------x--|--4--4-----4--L--------2--| 
------------------------2--|-------2-----2-------x--|--1--1-----2--L--------2--| 
--5--4--2------------------|------------------------|-----------------------0--| 
-----------3b--L--0--------|------------------------|--------------------------| 


  Q    Q    Q    E  E     E  E  E  E   E  E  E  E     E  E  E  E  E  E  E  E    
-----------------------|---------------------------|--------------------------| 
-------3----2----------|---------------------------|--------------------------| 
-------2----2----------|------------------------6--|--L--6--6--6--6--6--6--7--| 
-------4----2----------|------------------------6--|--L--6--6--6--6--6--6--7--| 
-------0----0----2--4--|--5--4--2---------------4--|--L--4--4--4--4--4--4--5--| 
-----------------------|-----------3b--L--0--------|--------------------------| 


  E  E  E  E  E  E  E  E     E  E  E  E  E  E  E  E     E  E  E  E  Q    E  E    
--------------------------|--------------------------|-------------------------| 
--------------------------|--------------------------|-------------------------| 
--L--7--7--7--7--7--7--2--|--L--2--2--2--2--2--------|----------------------4--| 
--L--7--7--7--7--7--7--2--|--L--2--2--2--2--2--------|----------------------4--| 
--L--5--5--5--5--5--5--0--|--L--0--0--0--0--0--0--2--|--3--3----------------2--| 
--------------------------|--------------------------|-----------3-------------| 


  Q    E  E  E  E  E  E     Q    E  E  Q    Q       H.           E  E    
-------------------------|-----------------------|---------------------| 
-------------------------|-----------------------|---------------------| 
--L----------4-----------|--4----L--4--L---------|---------------------| 
--L----2-----4-----------|--4----L--4--L----2----|--L---------------4--| 
--L----2-----2-----2--2--|--2----L--2--L----2----|--L---------------4--| 
-------0-----------0--0--|------------------0----|--L---------------2--| 


  Q    E  E  E  E  E  E     E  E  E  Q    E  E  E     E  E  E  E  E  E  E  E    
-------------------------|-------------------------|--------------------------| 
-------------------------|-------------------------|--------------------------| 
-------4-----------4--4--|-----------4----L--------|--------4-----------4--4--| 
--L----4-----4-----4--4--|--4--4-----4----L-----4--|--L--4--4-----4-----4--4--| 
--L----2-----4-----2--2--|--4--4-----2----L-----4--|--L--4--2-----4-----2--2--| 
-------------2-----------|--2--2----------------2--|--L--2--------2-----------| 


  H        Q    E  E     Q    E  E  E  E  E  E     Q    E  E  E  E  E  E    
----------------------|-------------------------|-------------------------| 
----------------------|-------------------------|-------------------------| 
-----------4----L-----|-------4-----------------|-------4-----------------| 
--2--------4----L--4--|--L----4-----4--------4--|--L----4-----4--------4--| 
--2--------2----L--4--|--L----2-----4--------4--|--L----2-----4--------4--| 
--0----------------2--|--L----------2--------2--|--L----------2--------2--| 


  Q    E  E  E  E  E  E     H        Q    E  E     E  E  E  E  E   E  E  E    
-------------------------|----------------------|---------------------------| 
-------------------------|----------------------|---------------------------| 
-------4-----------4--4--|-------------------4--|--L--4--2--L------------4--| 
--L----4-----4-----4--4--|--2--------2----L--4--|--L--4--2--L------------4--| 
--L----2-----4-----2--2--|--2--------2----L--2--|--L--2--0--L------------2--| 
--L----------2-----------|--0--------0----L-----|--------------4b--2--0-----| 


  E  E  E  E  E   E  E  E     E  E  E  E  E   E  E  E    
---------------------------|---------------------------| 
---------------------------|---------------------------| 
--L--4--2--L------------4--|--L--4--2--L------------4--| 
--L--4--2--L------------4--|--L--4--2--L------------4--| 
--L--2--0--L------------2--|--L--2--0--L------------2--| 
--------------4b--2--0-----|--------------4b--2--0-----| 


  E  E  E  E  E   E  E  E     E  E  E  E  E   E  E  E    
---------------------------|---------------------------| 
---------------------------|---------------------------| 
--L--4--2--L------------4--|--L--4--2--L------------4--| 
--L--4--2--L------------4--|--L--4--2--L------------4--| 
--L--2--0--L------------2--|--L--2--0--L------------2--| 
--------------4b--2--0-----|--------------4b--2--0-----| 


  E  E  E  E  E   E  E  E     E  E  E  E  E   E  E  E    
---------------------------|---------------------------| 
---------------------------|---------------------------| 
--L--4--2--L------------4--|--L--4--2--L------------4--| 
--L--4--2--L------------4--|--L--4--2--L------------4--| 
--L--2--0--L------------2--|--L--2--0--L------------2--| 
--------------4b--2--0-----|--------------4b--2--0-----| 


  E  E  E  E  E   E  E  E     E  E  E  E  E   E  E  E    
---------------------------|---------------------------| 
---------------------------|---------------------------| 
--L--4--2--L------------4--|--L--4--2--L------------4--| 
--L--4--2--L------------4--|--L--4--2--L------------4--| 
--L--2--0--L------------2--|--L--2--0--L------------2--| 
--------------4b--2--0-----|--------------4b--2--0-----| 


  E  E  E  E  E   E  E  E     E  E  E  E  E   E  E  E    
---------------------------|---------------------------| 
---------------------------|---------------------------| 
--L--4--2--L------------4--|--L--4--2--L------------4--| 
--L--4--2--L------------4--|--L--4--2--L------------4--| 
--L--2--0--L------------2--|--L--2--0--L------------2--| 
--------------4b--2--0-----|--------------4b--2--0-----| 


  E  E  E  E  E   E  E  E     E  E  E  E  E   E  E  E    
---------------------------|---------------------------| 
---------------------------|---------------------------| 
--L--4--2--L------------4--|--L--4--2--L------------4--| 
--L--4--2--L------------4--|--L--4--2--L------------4--| 
--L--2--0--L------------2--|--L--2--0--L------------2--| 
--------------4b--2--0-----|--------------4b--2--0-----| 


  E  E  E  E  E   E  E  E     E  E  E  E  E   E  E  E    
---------------------------|---------------------------| 
---------------------------|---------------------------| 
--L--4--2--L------------4--|--L--4--2--L------------4--| 
--L--4--2--L------------4--|--L--4--2--L------------4--| 
--L--2--0--L------------2--|--L--2--0--L------------2--| 
--------------4b--2--0-----|--------------4b--2--0-----| 


  E  E  E  E  E   E  E  E       E  E  E  E  E   E  E  E    
---------------------------||----------------------------| 
---------------------------||----------------------------| 
--L--4--2--L------------4--||*--L--4--2--L------------4--| 
--L--4--2--L------------4--||*--L--4--2--L------------4--| 
--L--2--0--L------------2--||---L--2--0--L------------2--| 
--------------4b--2--0-----||---------------4b--2--0-----| 


  E  E  E  E  E   E  E  E   8x  W                   W                  
----------------------------||-------------------|-------------------| 
----------------------------||-------------------|-------------------| 
--L--4--2--L------------4--*||--4----------------|--L----------------| 
--L--4--2--L------------4--*||--4----------------|--L----------------| 
--L--2--0--L------------2---||--2----------------|--L----------------| 
--------------4b--2--0------||-------------------|-------------------| 


  E  E  E  E  E   E  E  E     H        E  E  Q       H        E  E  Q      
---------------------------|----------------------|----------------------| 
---------------------------|----------------------|----------------------| 
--L--4--2--L------------4--|--L--------4--4--L----|-----------4--4--4----| 
--L--4--2--L------------4--|--L--------4--4--L----|-----------4--4--4----| 
--L--2--0--L------------2--|--L--------2--2--L----|-----------2--2--2----| 
--------------4b--2--0-----|----------------------|----------------------| 


  H        E  E  Q       
----------------------|| 
----------------------|| 
-----------4----------|| 
-----------4----------|| 
-----------2----------|| 
----------------------|| 




========================================================================== 
========================================================================== 

                                 Guitar solo                                    





     H        Q    E   E     Q     E   E   E     E   E   E    
E||-------------------16--|--L----15--16------------16--16--| 
B||-----------------------|---------------14brb--L----------| 
G||-----------------------|---------------------------------| 
D||-----------------------|---------------------------------| 
A||-----------------------|---------------------------------| 
E||-----------------------|---------------------------------| 


                                                                  W    
   E   E   E   E   E   E   E   E        Q     E   E   E   E   E   E    
--15--16-----------------------------|-------------------------------| 
----------14-------------------------|-------14----------------------| 
--------------16--15--14--13--12brb--|--L--------12------15----------| 
-------------------------------------|---------------14------14--11--| 
-------------------------------------|-------------------------------| 
-------------------------------------|-------------------------------| 


   Q     E   E   E  E   E   E    
-------------------------------| 
-------------------------------| 
---------------------------14--| 
---L----14--11--14--L--11------| 
-------------------------------| 
-------------------------------| 


   S S   S  S   S   S   S  S   S   S   S  S   S  S  S  S   
---------------------------------------------------------| 
---------------------------------------------------------| 
--15-Ls-16-15p-13p-12h-13-15p-14p-13p-12-11p-10p-9p-8----| 
------------------------------------------------------11-| 
---------------------------------------------------------| 
---------------------------------------------------------| 


   S S S S  S S E   E  E   E  E     E  E  E    E  E    E  E    E    
---------------------------------|--------------------------------| 
---------------------------------|--------------------------------| 
---------------------------------|------------------------9S--11--| 
--10-9-8-7-----------------------|----------------9S--11----------| 
-----------10-9-7b--L--7b--L--7--|--L--7--9S--11------------------| 
---------------------------------|--------------------------------| 


   Q      Q     E  E   E  E                                                    
-----------------------------| 
--12-----12-----9--9---------| 
--11b-----9b----9--9---------| 
----------------------11-----| 
-----------------------------| 
-----------------------------| 



Duration Legend 
--------------- 
W - whole 
H - half 
Q - quarter 
E - 8th 
S - 16th 
T - 32nd 
X - 64th 
. - note dotted 
|-n-|  - n-tuplets 


Tablature Legend 
---------------- 
L - tied note 
x - dead note 
g - grace note 
(n) - ghost note 
> - accentuded note 
NH - natural harmonic 
AH - artificial harmonic 
TH - tapped harmonic 
SH - semi harmonic 
PH - pitch harmonic 
h - hammer on 
p - pull off 
b - bend 
br - bendRelease 
pb - preBend 
pbr - preBendRelease 
brb - bendReleaseBend 

/ - tremolo bar dip 

 - tremolo bar dive 
-/n - tremolo bar Release up 
/n\ - tremolo bar inverted dip 
/n - tremolo bar return 
- 
 - tremolo bar Release down 
S - shift slide 
s - legato slide 
/ -  slide into from below or out of upwards 
\ -  slide into from above or out of downwards 
~ - vibrato 
W - wide vibrato 
tr - trill 
TP - tremolo picking 
T - tapping 
S - slap 
P - pop 
< - fade in 
^ - brush up 
v - brush down 
		  

Full key step upFull key step up
Half key step upHalf key step up
Half key step downHalf key step down
Full key step downFull key step down
hide glossary

See also:

tabs Slipknot - My Plague tabs Marilyn Manson - Sweet Dreams tabs Marilyn Manson - Rock Is Dead tabs Pantera - Floods tabs Rainbow - Catch The Rainbow tabs Slipknot - Vermillion Pt. 2 (ver. 3)
e-chords

Other versions:

tabs Steel Panther - I Like Drugs
auto scroll beats size up size down change color hide chords drawings
tab show chords e-chords YouTube Clip e-chords hide all tabs e-chords go to top tab

share