Steel Panther

Bukakke Tears

Steel Panther

tabs

by  EDUCASTILHO

save to print version add songbook text version e-mail correct tuner
chordsukulelecavacokeyboardtabbassdrumsharmonicaflute Guitar Pro
close

there isn't a video lesson for this song

chords

Bukakke Tears

	  		

Intro/Pre-verse 1 
  
 guitar 1 (acoustic) 
  ^ 
e|3--------3-| 
B|3--------3-| 
G|2--------2-| 
D|0--------0-| 
A|-----------| 
E|-----------| 

 guitar 2 
e|------------------| 
B|------------------| 
G|-/7~--------------| 
D|--------/7~-5~-2~-| 
A|------------------| 
E|------------------| 

========== 

verse 1 ("You said you wanted to open up the doors...") 
 guitar 1 (clean) 
e|--------------------------------------------| 
B|--------------------------------------------| 
G|----0-----0-----0-----0-----0-----0---------| 
D|2-4---2-4-----0-----0-----0-----0-----------| 
A|------------2-----4-----2-----4-----2/5-4-2-| 
E|--------------------------------------------| 

 guitar 1 (clean) 
e|--------------------------------------------------------------| 
B|--------------------------------------------------------------| 
G|----0-----0-----0-----0-----0-----0-----0-----0-----0---------| 
D|2-4---2-4---2-4---2-4---2-4-----0-----0-----0-----0-----------| 
A|------------------------------2-----4-----2-----4-----2/5-4-2-| 
E|--------------------------------------------------------------| 

 guitar 1 (clean) 
e|------------------------------| 
B|------------------------------| 
G|----0-----0-----0-----0-----0-| 
D|2-4---2-4---2-4---2-4---2-4---| 
A|------------------------------| 
E|------------------------------| 

========== 

Pre-Chorus 1 ("So I called some of the boys...") 
 guitar 1 
    . . . . . . .           . . . . . . . 
e|-----------------------------------------------| 
B|----------------3-3--3------------------3-3----| 
G|2---------------0-0--2--2---------------0-0--4-| 
D|2---------------0-0--0--2---------------0-0--4-| 
A|0-0-0-0-0-0-0-0---------0-0-0-0-0-0-0-0------2-| 
E|-----------------------------------------------| 

========== 

Chorus 1 ("There was so much love on your face...") 
 guitar 1 
                          .                         
e|----------3-3-3-2--2--------------------------3-2-0-2--2-3-3-3-2---| 
B|-----0----3-3-3-3--3---------------------0----3-3-3-3--3-3-3-3-3---| 
G|-----4----0-0-0-2--2-2----4--4-2---------4----2-2-2-2--2-2-2-2-2---| 
D|2----4----0-0-0-0--0-2----2--2-2----2----4----0-0-0-0--0-0-0-0-0-2-| 
A|2----2----0-0-0-0--0-0--0-0--0-0----2----2----0-0-0-0--0-0-0-0-0-2-| 
E|0----0----3-3-3-3--3----------------0----0----3-3-3-3--3-3-3-3-3-0-| 

========= 

Pre-verse 2 
 guitar 1 (clean) 
  ^ 
e|3--------3-| 
B|3--------3-| 
G|2--------2-| 
D|0--------0-| 
A|-----------| 
E|-----------| 

 guitar2 
e|--------------------------------------------------------| 
B|-/19~----19-20-19~----15-19-15~----12-15-12~----12-10-7-| 
G|--------------------------------------------------------| 
D|--------------------------------------------------------| 
A|--------------------------------------------------------| 
E|--------------------------------------------------------| 

e|----------------------------------| 
B|-----7h8p7--------------7---------| 
G|-9p7-------9-7------7-9---9-7-----| 
D|---------------9-7------------7-9~| 
A|----------------------------------| 
E|----------------------------------| 

========== 

verse 2 ("I said it would turn me on...") 

 guitar 1 (clean) 
e|--------------------------------------------| 
B|--------------------------------------------| 
G|----0-----0-----0-----0-----0-----0---------| 
D|2-4---2-4-----0-----0-----0-----0-----------| 
A|------------2-----4-----2-----4-----2/5-4-2-| 
E|--------------------------------------------| 

 guitar 1 (clean) 
e|------------------------------------------------------------| 
B|------------------------------------------------------------| 
G|----0-----0-----0-----0-----0-----0-----0-----0-----0-----0-| 
D|2-4---2-4---2-4---2-4---2-4-----0-----0-----0-----0-----0---| 
A|------------------------------2-----4-----2-----4-----2-----| 
E|------------------------------------------------------------| 

 guitar 1 (clean) 
e|------------------------------| 
B|------------------------------| 
G|----0-----0-----0-----0-----0-| 
D|2-4---2-4---2-4---2-4---2-4---| 
A|------------------------------| 
E|------------------------------| 

========== 

Pre-Chorus 2 ("But as I started letting out the dog in me..." 
 guitar 1 
    . . . . . . .           . . . . . . . 
e|-----------------------------------------------| 
B|----------------3-3--3------------------3-3----| 
G|2---------------0-0--2--2---------------0-0--4-| 
D|2---------------0-0--0--2---------------0-0--4-| 
A|0-0-0-0-0-0-0-0---------0-0-0-0-0-0-0-0------2-| 
E|-----------------------------------------------| 

========== 

Chorus 2 ("There was so much love on your face...") 
 guitar 1 
                          . 
e|----------3-3-3-2--2--------------------------3-2-0-2--2-3-3-3-2---| 
B|-----0----3-3-3-3--3---------------------0----3-3-3-3--3-3-3-3-3---| 
G|-----4----0-0-0-2--2-2----4--4-2---------4----2-2-2-2--2-2-2-2-2---| 
D|2----4----0-0-0-0--0-2----2--2-2----2----4----0-0-0-0--0-0-0-0-0-2-| 
A|2----2----0-0-0-0--0-0--0-0--0-0----2----2----0-0-0-0--0-0-0-0-0-2-| 
E|0----0----3-3-3-3--3----------------0----0----3-3-3-3--3-3-3-3-3-0-| 

========== 

Bridge 
 guitar 1 
e|-------------| 
B|-----3---3---| 
G|5----2---2---| 
D|5----0-2-0-2-| 
A|3------0---0-| 
E|-------------| 

 guitar 1 ("We can't stop now, it's moving too fast.") 
                     .                                         . 
e|------------------------------------------------------------------------------------| 
B|------------------------------------------------------------------------------------| 
G|--------2-2-2-2-2----2--2-2-4--4-4-4--4-4---------2-2-2-2-2----2--2-2-4--4-4-4--4-4-| 
D|4-4-4-4-0-0-0-0-2----2--2-2-2--2-2-2--2-2-4-4-4-4-0-0-0-0-2----2--2-2-2--2-2-2--2-2-| 
A|4-4-4-4---------0--0-0--0-0---------------4-4-4-4---------0--0-0--0-0---------------| 
E|2-2-2-2-----------------------------------2-2-2-2-----------------------------------| 

 guitar 1 ("Dongs in each hand, so hold on tight.) 
     .         . .             .         . . 
e|----------------------------------------------------| 
B|3----3--3-3------3-3--3---3----3--3-3------3-3--3---| 
G|2----2--2-2------2-2--2---2----2--2-2------2-2--2---| 
D|0--0-0--0-0--0-0-0-0--0-2-0--0-0--0-0--0-0-0-0--0-2-| 
A|------------------------0-------------------------0-| 
E|----------------------------------------------------| 

========== 

Solo Rhythm 
 guitar 1 
                    .                             . 
e|---------------------------------------------------------| 
B|-----0----3------------------------0----3----------------| 
G|-----4----0----2----4--4-2---------4----0----2----4--4-2-| 
D|2----4----0----2----2--2-2----2----4----0----2----2--2-2-| 
A|2----2---------0--0-0--0-0----2----2---------0--0-0--0-0-| 
E|0----0------------------------0----0---------------------| 

 guitar 1 
     .   .   .   .   .         .   .   .   .   . 
e|---------------------------------------------------| 
B|---------------------------------------------------| 
G|5----5---5---5---5---5-7--5----5---5---5---5---5-7-| 
D|5----5---5---5---5---5-7--5----5---5---5---5---5-7-| 
A|3--3-3-3-3-3-3-3-3-3-3-5--3--3-3-3-3-3-3-3-3-3-3-5-| 
E|---------------------------------------------------| 

Solo 
 guitar 2 
e|17b19--17b19r17-16-----------14-16-17-15b17----15-14----15-14--------| 
B|-------------------18b19~----------------------------17-------15-14~-| 
G|---------------------------------------------------------------------| 
D|---------------------------------------------------------------------| 
A|---------------------------------------------------------------------| 
E|---------------------------------------------------------------------| 

 guitar 2 
e|------12h16p12----------12h16p12-------12h15p12-------------------------------------------| 
B|12h16----------16p12h16----------16p12----------16-12\10----------------------------------| 
G|---------------------------------------------------------13p11h13-------------------------| 
D|------------------------------------------------------------------14-13-11-13-------------| 
A|------------------------------------------------------------------------------14-12-11----| 
E|---------------------------------------------------------------------------------------14~| 

 guitar 2 
e|---------------------------------------------------------------------| 
B|15b17r15-12----12----------------------------------------------------| 
G|------------14----13b14r13-11----12b14r12-11h12p11\7~----------------| 
D|------------------------------14-------------------------------------| 
A|---------------------------------------------------------------------| 
E|---------------------------------------------------------------------| 

 guitar 2 
e|--------------------------------13-15-17----------15-17-19b21r19-19p15\14h17-------------| 
B|-----------------------13-15-17----------15-17-19----------------------------15-17-15b17-| 
G|----------------12~----------------------------------------------------------------------| 
D|-9\7---------10--------------------------------------------------------------------------| 
A|-----7\10-12-----------------------------------------------------------------------------| 
E|-----------------------------------------------------------------------------------------| 

 guitar 2 
e|-14b15r14--------14-12-------------------------------------------------------| 
B|----------15~----------15-13-12----13-12-------------------------------------| 
G|--------------------------------14-------14-12---------------------------7-| 
D|-----------------------------------------------15-14-12--------------7-----| 
A|--------------------------------------------------------15-14-12~------------| 
E|-----------------------------------------------------------------------------| 

========== 

Pre-Chorus 3 (Thanks for the help on this, urmike04) 
 guitar 1 (Acoustic - "There was so much love on your face...") 
e|--------------------0-------------------------------------------------| 
B|5-------5-------4-----2-----2---------4-----4-----4-----4-----4-----4-| 
G|--4---4---4---4---4-----4-----4-----4-----4-----4-----4-----4-----4---| 
D|----2-------2-------------0-----0-4-----2-----0-----------------------| 
A|----------------------------------------------------4-----2-----0-----| 
E|----------------------------------------------------------------------| 

 guitar 1 (Acoustic) 
e|------------------------0-------------------------------| 
B|----5-------5-------4-----2-----2-------4-----4-----4---| 
G|--4---4---4---4---4---4-----4-----4---4-----4-----4-----| 
D|2-------2-------2-------------0-----0-------------------| 
A|------------------------------------------4-----2-----0-| 
E|--------------------------------------------------------| 

========== 

Chorus 3 
 guitar 1 ("There was so much love on your face...") 
                    .                             . 
e|----------------------------------------3-2-0-2--2-3-3-3-2-| 
B|-----0----3--3---------------------0----3-3-3-3--3-3-3-3-3-| 
G|-----4----0--2-2----4--4-2---------4----2-2-2-2--2-2-2-2-2-| 
D|2----4----0--0-2----2--2-2----2----4----0-0-0-0--0-0-0-0-0-| 
A|2----2---------0--0-0--0-0----2----2----0-0-0-0--0-0-0-0-0-| 
E|0----0------------------------0----0----3-3-3-3--3-3-3-3-3-| 

========== 

First Outro 
 guitar 1 
                    .                             . 
e|---------------------------------------------------------| 
B|-----0----3------------------------0----3----------------| 
G|-----4----0----2----4--4-2---------4----0----2----4--4-2-| 
D|2----4----0----2----2--2-2----2----4----0----2----2--2-2-| 
A|2----2---------0--0-0--0-0----2----2---------0--0-0--0-0-| 
E|0----0------------------------0----0---------------------| 

 guitar 2 
e|------19b21-19b21r19-17----------------| 
B|---20-------------------17b19r17-------| 
G|19-------------------------------16----| 
D|------------------------------------16~| 
A|---------------------------------------| 
E|---------------------------------------| 

 guitar 2 
e|---------------------------------------------------------------------------------------------| 
B|15-14-12-15-14-12----------------------------------------------------------------------------| 
G|------------------16-14-12-16-14-12----------------------------------------------------------| 
D|------------------------------------16-14-12-16-14-12----------------------------------------| 
A|------------------------------------------------------16-14-12-16-14-12-------------------14~| 
E|------------------------------------------------------------------------15-14-12-15-14-12----| 

 guitar 2 
e|-------------------------------------------------| 
B|----------------------------------14-15b17-15b17-| 
G|------16h18p16-----------------16----------------| 
D|17-19----------19-17-19b20-17--------------------| 
A|-------------------------------------------------| 
E|-------------------------------------------------| 

 guitar 2 
e|----14----15----17----15----14----15----17----15----14----| 
B|/15----15----15----15----15----15----15----15----15----17~| 
G|----------------------------------------------------------| 
D|----------------------------------------------------------| 
A|----------------------------------------------------------| 
E|----------------------------------------------------------| 

 guitar 2 
e|15b17-14h15p14p12-----------------------------------------| 
B|------------------15p14p12-14p12--------------------------| 
G|---------------------------------12-11-12b14r12-----------| 
D|------------------------------------------------14p12-14~-| 
A|----------------------------------------------------------| 
E|----------------------------------------------------------| 

 guitar 2 (over laps into next section) 
e|--------| 
B|--------| 
G|--------| 
D|--------| 
A|7~------| 
E|------2~| 

========== 
Second Outro 
 guitar 1 ("There was so much love, so much love") 
                    . 
e|-----2-----------------------------2---------------------| 
B|-----3-----------------------------3---------------------| 
G|-----2---------2----4--4-2---------2---------2--2-2--2-2-| 
D|2----0----5----2----2--2-2----2----0----5----2--2-2--2-2-| 
A|2----0----5----0--0-0--0-0----2----0----5----0--0-0--0-0-| 
E|0----3----3-------------------0----3----3----------------| 

========== 

Final Outro 
 guitar 1 
                    .                             . 
e|---------------------------------------------------------| 
B|-----0----3------------------------0----3----------------| 
G|-----4----0----2----4--4-2---------4----0----2----4--4-2-| 
D|2----4----0----2----2--2-2----2----4----0----2----2--2-2-| 
A|2----2---------0--0-0--0-0----2----2---------0--0-0--0-0-| 
E|0----0------------------------0----0---------------------| 

 guitar 2 
e|-------12/16---------------------------------------------------| 
B|17~----------18b19~----19p16\12-13b14*-13-12-13b14r13p12-13b14~| 
G|---------------------------------------------------------------| 
D|---------------------------------------------------------------| 
A|---------------------------------------------------------------| 
E|---------------------------------------------------------------| 

 guitar 2                      (starts to fade) 
e|----------------------------------------------------------------------------------| 
B|-14-12h14p12\10-7-8b9--7h8p7------------------------------------------------------| 
G|-----------------------------9~--9-9-9-9\7\6\4--4-6-6b7r6-4-7-6h7p6p4-4h6p4-6\4\2~| 
D|----------------------------------------------------------------------------------| 
A|----------------------------------------------------------------------------------| 
E|----------------------------------------------------------------------------------| 

 guitar 2 
e|----------------------5trm-7trm-9trm-10trm-12trm-14-12~--------------------------------------| 
B|-5~----5trm-7trm-8trm--------------------------------------12~----12-12-12/7/5-7/5/3~--3/2/0-| 
G|---------------------------------------------------------------------------------------------| 
D|---------------------------------------------------------------------------------------------| 
A|---------------------------------------------------------------------------------------------| 
E|---------------------------------------------------------------------------------------------| 

 guitar 2 
           T          T          T          T          T          T 
e|---------------------------------------------------------------------| 
B|-5h8p7p5-12-5h8p7p5-12-5h8p7p5-12-5h8p7p5-12-5h8p7p5-12-5h8p7p5-12-7~| 
G|---------------------------------------------------------------------| 
D|---------------------------------------------------------------------| 
A|---------------------------------------------------------------------| 
E|---------------------------------------------------------------------| 

Legend 
------ 
* - deaden note 
. - palm mute 
^ - Upstroke 
x(#) - Repeat as indicated (x3 indicates repeating the riff twice more, etc.) 
\/ - use tremolo bar 
<> - pinch harmonic (bring the picking thumb across the string after picking note) 
 - natural harmonic (lightly rest fretting finger on string, then pick) 
b - bend (16b19 would indicate bending the 16th fret to a pitch of the 19th fret, 
          or a one and one half step bend) 
h - hammer-on to indicated fret 
p - pull-off to indicated fret 
r - release (16b19r16 would indicate bending the 16th fret up one and one half step 
             then releasing back to a 16th fret pitch)  
/ - slide up (higher in pitch) 
\ - slide down (lower in pitch) 
T - Tap note with pick or a picking hand finger 
trm - tremolo pick 
~ - vibrato 
		  

See also:

tabs Slipknot - My Plague tabs Marilyn Manson - Sweet Dreams tabs Marilyn Manson - Rock Is Dead tabs Pantera - Floods tabs Rainbow - Catch The Rainbow tabs Slipknot - Vermillion Pt. 2 (ver. 3)
e-chords

Other versions:

tabs Steel Panther - Bukakke Tears
auto scroll beats size up size down change color hide chords drawings
tab show chords e-chords YouTube Clip e-chords hide all tabs e-chords go to top tab

share