Stauros

Faith In The Arena

Stauros

tabs

save to print version add songbook text version e-mail correct tuner
chordsukulelecavacokeyboardtabbassdrumsharmonicaflute Guitar Pro
close

there isn't a video lesson for this song

chords

Faith In The Arena

	  		/ \ = ligadura
   __
  /  \
 /    \  = ligadura
/      \
5/ 7 = slide
~ = alavanca
/ =
\ =



||---0-------5------3------2--------------0-------3------2---------------------||---------------
||.--5--5------5------5------5----3-------5--5------5------5----3-----0-------.||---------------
||---4----4------4------4------4----4-----4----4------4------4----4-4---4------||4X-------------
||-----------------------------------------------------------------------------||---------------
||.---------------------------------------------------------------------------.||---------------
||---0---------------------------------0--0--------------------------------0---||---------------

							(Guitarra 1)
--0--------------------------------------------------||-----------------------------------------
--5--5-----------------------------------------------||-----------------------------------------
--4----4---------------------------------------------||--------0---------------0----------------
---------4-------4-------4-------4-------4-----4-----||------4---4--------0------0--------------
-----------------------------------------------------||----2-------2----2---2------2------------
--0---------0-0-----0-0-----0-0-----0-0-----0-----0--||--0------------3-------------------------


		       H
----------------------/\----------------------------------------------------------||------------
--------3------------2--3------------------------------------------3------5--4----||.-----------
------2---2--------4-------4----------0---------------0----------2---2----4--4----||------------
----4-------4----4-----------4------4---4--------0------0------4-------4--4--4----||------------
--5------------2------------------2-------2----2---2------2--5------------2-------||.-----------
--------------------------------0------------3------------------------------------||------------


(Guitarra 2)
--------------/7--5-7-5--3----------|-------------------------------------|--------------------
------0------------\-/---3-----3----|-------------------3-----5--3--------|-----0--------------
--------0-----------\------------0--|-----2--2--4-------4------\/----5/4--|-------0------------
------------------------------------|---4-----\/--------4--4--------------|--------------------
------------------------------------|-5-----------------2-----------------|--------------------
--0------------------------3--------|-5-----------------------------------|--0-----------------

  SL                                          Tapping
--/7---5-7-5--3-----------|-------------------------------||-----------------------------------
-------\--/---3-----3-----|----------------5---{7}-/4-----||-----------------------------------
--------\/-------------0--|------2--2--4---4-----\/-4-----||-----------------------------------
--------------------------|----4-----\/----4--------------||-----------------------------------
--------------------------|--5-------------2--------------||-----------------------------------
-----------------3--------|-------------------------------||-----------------------------------


  1ª parte
--0-------5------3------2--------------0-------3------2---------------------||------------------
--5--5------5------5------5----3-------5--5------5------5----3-----0-------.||.-----------------
--4----4------4------4------4----4-----4----4------4------4----4-4---4------||------------------
----------------------------------------------------------------------------||--2X--------------
---------------------------------------------------------------------------.||.-----------------
--0---------------------------------0--0--------------------------------0---||------------------

 Chorus I 
-------------------------------------||---------------------------------------------------------
-----------------------3------------.||-----------------------H------------------------H--------
---------2----------4--2--2----------||4X----------------7---/\-------------------7---/\--------
------2--2---2--4-4-4--0--2--4--5----||------------5-----7--5--7--2-------2-5-----7--5--7-------
--2-2-2--0---2--2-2-2-----4--5--7---.||------------5-----5--------2-------2-5-----5-------------
--0-0-0----3-0---------------5--7----||----3-2-3-5-3-2-3-5--------0--2-3--0-3-2-3-5-------------
  P.M           P.M
								    H
-------------||----------------------------------------------------/\---------------------------
-------------||.-------------------------------------3------------2--3--------------------------
--9-H---8----||---------0---------------0----------2---2--------4------4----------0-------------
--9/\---9----||-------4---4--------0------0------4-------4----4----------4------4---4-----------
--7--9--9----||.----2-------2----2---2------2--5------------2-----------------2-------2---------
--7-----7----||---0------------3--------------------------------------------0-------------------


---------------------------------------||-----1ª parte 2X  + Chorus I + 1ª parte 2X-------------
------------------------3------5--4---.||-------------------------------------------------------
-----------0----------2---2----4--4----||-------------------------------------------------------
------0------0------4-------4--4--4----||2X-----------------------------------------------------
----2---2------2--5------------2------.||-------------------------------------------------------
--3------------------------------------||-------------------------------------------------------


||--------------------------------------||------------------------------------||---------------
||.------------------------3-----------.||------------------------------------||.--------------
||---------2------------4--2--2---------||4X----------------------------------||---------------
||---------2----2--4-4--4--0--2--4--5---||----------2--2-2-2--2-2--2-5-4-5----||---------------
||.-2-2-2--0----2--2-2--2-----4--5--7--.||-----2-2--2--2-2-2--2-2--2-5-4-5----||.--------------
||--0-0-0-----3-0--P.M-----------5--7---||-----0-0--0--0-0-0--0-0--0-3-2-3----||---------------
    P.M					       P.M
Base Solo
-------------------/-----------------------------------||---------------||---------------------
------------------/-\---------------------------------.||---------------||.--------------------
-----------------12/14--12-------14--12----------------||---------------||---------------------
--2------2-------12/14--12-------14--12------2-5-4-5---||2X--2-------2--||---------------------
--2--2-2-2-----------------------------------2-5-4-5--.||----2--2-2--2--||.--------------------
--0--0-0-0--0-0-------------0-0----------12--0-3-2-3---||----0--0-0--0--||---------------------

Guitarra Limpa									 /\
--------------------------------------------------------------------------------/--\------||
-------------------------------------------------------------------------------/----\----.||
-------0-----------0----------0-----------2------0----------0----------0------2-/-7-/-5---||8X
-----4---4-------4---4------4---4-------2------4---4------4---4------3---3----2-/-7-/-5---||
------------2-2--------2-----------2--4------3-------3--2-------2--1-------1--0----------.||
--0----------------------3----------------------------------------------------------------||

               Semi/Harm
||--------------------------------||-----------------------------------------------------------
||.------------------------------.||-----------------------------------------------------------
||--9--8----7--6----5--4----3-2---||---------9-------8------7---------6-----5-------4----------
||--9--8----7--6----5--4----3-2---||2X-------9-------8------7---------6-----5-------4----------
||.-7--6----5--4----3--2----1-0--.||---------7-------6------5---------4-----3-------2----------
||-------7--------5-------3-1-----||----0-0-----0-0----5-7-----0-0-0-----5-----0-0-----0-3-----

								   B1/4
---------------|-------------------------------------------------------------|-----------------
---------------|-------------------------------------------------------------|-----------------
--3--2---------|--9------8------7---------6-----5------4-------3-2-----------|-----------------
--3--2---------|--9------8------7---------6-----5------4-------3-2---------2-|-----------------
--1--0---------|--7------6------5---------4-----3------2-------1-0---------2-|-----------------
--1-----\/-----|----0-0-----5-7----0-0-0-----5----0-0-----0-3--1----3------0-|-----------------
       Lavanca
						     
--------------------------------------------------/\-----------------------------------------||
-------------------------------------3-----------2--3-------------------------------------3--||
--------0---------------0----------2---2-------4------4---------0-------------0---------2----||
------4---4--------0------0------4-------4---4----------4-----4---4-------0-----0-----4------||
----2-------2----2---2------2--5-----------2----------------2-------2---2---2-----2-5--------||
--0------------3------------------------------------------0-----------3----------------------||
		  

auto scroll beats size up size down change color hide chords drawings
tab show chords e-chords YouTube Clip e-chords hide all tabs e-chords go to top tab

share