Stampeders

Got To Get Me Back Home

Stampeders

tabs

by  JOAOEWERTON

save to print version add songbook text version e-mail correct tuner
chordsukulelecavacokeyboardtabbassdrumsharmonicaflute Guitar Pro
close

there isn't a video lesson for this song

chords

Got To Get Me Back Home

Year: 2006 - Album: Rubes, Dudes and Rowdies

	  		

Tuning: Standard 

e|---------------------------------------------------------------------------| 
B|--3--3-3--5-3--53----------------------------------------------------------| 
G|---------------------------------------------------------------------------| 
D|---------------------------------------------------------------------------| Riff 1 
A|---------------------------------------------------------------------------| 
E|---------------------------------------------------------------------------| 

e|---------------------------------------------------------------------------| 
B|-5-7-8-----10b1210-------8\7/8\7\5-----------------------------------------| 
G|---------------------------------------------------------------------------| 
D|---------------------------------------------------------------------------| Riff 2 
A|---------------------------------------------------------------------------| 
E|---------------------------------------------------------------------------| 

e|----------3------------2---------------------------------------------------| 
B|---------------------3-----------------------------------------------------| 
G|-------------------2-------------------------------------------------------| 
D|--------0--------0---------------------------------------------------------| Riff 3 
A|------2--------------------------------------------------------------------| 
E|----3---------------------0------------------------------------------------| 

e|---------------------------------------------------------------------------| 
B|---3-3-3-3----3-3-5--5-----------------------------------------------------| 
G|---------------------------------------------------------------------------| 
D|---------------------------------------------------------------------------| Riff 4 
A|---------------------------------------------------------------------------| 
E|---------------------------------------------------------------------------| 

e|------------------------------10-------------------------------------------| 
B|-5-7-8-----10b1210-------10b12--10-8-7-------------------------------------| 
G|---------------------------------------------------------------------------| 
D|---------------------------------------------------------------------------| Riff 5 
A|---------------------------------------------------------------------------| 
E|---------------------------------------------------------------------------| 





************************************ 

| /   slide up 
| \   slide down 
| h   hammer-on 
| p   pull-off 
| ~   vibrato 
| +   harmonic 
| x   Mute note 
| b   Bend 
| pb  Pre-bend 
| br  Bend release 
| pbr Pre-bend release 
| brb Bend release bend 

************************************ 
		  

auto scroll beats size up size down change color hide chords drawings
tab show chords e-chords YouTube Clip e-chords hide all tabs e-chords go to top tab

share