Spirit of the West

Tripping Up The Stairs

Spirit of the West

tabs

by  CARLLUZ

save to print version add songbook text version e-mail correct tuner
chordsukulelecavacokeyboardtabbassdrumsharmonicaflute Guitar Pro
close

there isn't a video lesson for this song

chords

Tripping Up The Stairs

	  		Intro  
E|-----------------|----------0-2-0--|-----------------|----2-0----------| 
B|---------------0-|-0-----3---------|-3-2-3-2-----0-2-|-3-------3-------| 
G|-2-----2-2--0----|----2------------|----------2------|------------2-0--| 
D|----4------------|-----------------|-----------------|-----------------| 
A|-----------------|-----------------|-----------------|-----------------| 
E|-----------------|-----------------|-----------------|-----------------| 
  
E|-----------------|-----0-2-0-------|--------------2-0|-----------------| 
B|-----------0-0---|--3---------3-2-3|-2-----0-2-3-----|--3--------------| 
G|----2-2-0-------2|-----------------|----2------------|-----------------| 
D|-4---------------|-----------------|-----------------|-----------------| 
A|-----------------|-----------------|-----------------|-----------------| 
E|-----------------|-----------------|-----------------|-----------------| 
  
E|----------2------|-2-3-2-2-0-------|------0-------5-4|-5-0-------------| 
B|-2-3-0-0-----0-0-|------------3-2--|-----------------|------3-2-3-0-0--| 
G|-----------------|-----------------|-2-2-----2-2-----|-----------------| 
D|-----------------|-----------------|-----------------|-----------------| 
A|-----------------|-----------------|-----------------|-----------------| 
E|-----------------|-----------------|-----------------|-----------------| 
  
E|-2-------2-3-2-2-|-0---------------|------2-0--------|-----------------| 
B|----0-0----------|----3-2-3-2-----0|-2-3-------3-----|-----------------| 
G|-----------------|-------------2---|-----------------|-----------------| 
D|-----------------|-----------------|-----------------|-----------------| 
A|-----------------|-----------------|-----------------|-----------------| 
E|-----------------|-----------------|-----------------|-----------------| 
		  

See also:

tabs Simon & Garfunkel - Sounds of silence tabs R.E.M. - Everybody Hurts tabs Guns N' Roses - Knockin' On Heaven's Door tabs John Mayer - Belief tabs The Wonders - That Thing You Do tabs Cheap Trick - The Flame
e-chords

Other versions:

tabs Spirit of the West - Tripping Up The Stairs
auto scroll beats size up size down change color hide chords drawings
tab show chords e-chords YouTube Clip e-chords hide all tabs e-chords go to top tab

share