Spiderbait

home > Spiderbait

Black Betty (ver.2) Tab

Spiderbait

Difficulty: AdvancedAdvanced

by Samtheguitarman

tuner correct add songbook print version text version save to e-mail
chordsukulelecavacokeyboardtabbassdrumsharmonicsflute Guitar Pro
chords

Black Betty (ver.2)

  		This is the two peices I've figured out so far... Watch  
for more to come! Play this with heavy distortion. 
 
 
e-----------------------------------------------------| 
B-----------------------------------------------------| 
G-----------------------------------------------------| 
D-0-4-4---0-4-4/7------0-4-4---0-4-4/7----------------| 
A-0-4-4---0-4-4/7------0-4-4---0-4-4/7----------------| 
E-0-2-2---0-2-2/5------0-2-2---0-2-2/5----------------| 
 
 
e-----------------------------------------------------| 
B-----------------------------------------------------| 
G-----------------------------------------------------| 
D-4-4-4--4/7/9/7/4--4-4-4--4/7/9/7/4------------------| 
A-4-4-4--4/7/9/7/4--4-4-4--4/7/9/7/4------------------| 
E-2-2-2--2/5/7/5/2--2-2-2--2/5/7/5/2------------------| 
 
There you go! 

	  

Search Paypal
auto scroll beats size up size down change color hide chords drawings
tab show chords e-chords YouTube Clip e-chords hide all tabs e-chords go to top tab