Speedy Ortiz

Raising The Skate

Speedy Ortiz

tabs

by  PAULLET3

save to print version add songbook text version e-mail correct tuner
chordsukulelecavacokeyboardtabbassdrumsharmonicaflute Guitar Pro
close

there isn't a video lesson for this song

chords

Raising The Skate

	  		Intro: 

e|---------------------------------------------------------------------------| 
B|------6/9(slow)------------------------------------------------------------| 
G|---------------------------------------------------------------------------| 
D|---------------------------------------------------------------------------| 
A|---------------------------------------------------------------------------| 
E|---------------------------------------------------------------------------| 



Hook:  (play four times (changes slightly fourth time) 

e|---------------------------------------------------------------------------| 
B|---------------------------------------------------------------------------| 
G|--------------------12-13-14--10-8-----------13----------------------------| 
D|---11/15---11-15------------------12--11-15--------------------------------| 
A|---------------------------------------------------------------------------| 
E|---------------------------------------------------------------------------| 



Fourth time: 

e|---------------------------------------------------------------------------| 
B|---------------------------------------------------------------------------| 
G|--------------------12-13-14--10-8-------7------5--------------------------| 
D|---11/15---11-15------------------12---8---8-------------------------------| 
A|---------------------------------------------8----6------------------------| 
E|---------------------------------------------------------------------------| 

e|--1-1-1-1-1-1-1-1----------------------------------------------------------| 
B|--1-1-1-1-1-1-1-1----------------------------------------------------------| 
G|--2-2-2-2-2-2-2-2----------------------------------------------------------| 
D|--3-3-3-3-3-3-3-3----------------------------------------------------------| 
A|--3-3-3-3-3-3-3-3----------------------------------------------------------| 
E|--1-1-1-1-1-1-1-1----------------------------------------------------------|  


verse 1: 

e|---------------------------------------------------------------------------| 
B|--------------------------------------------------6-6----------------------| 
G|---2/5(slow)-5/6-6-3-3-3-2----2/5(slow)--8-7-3-7--7-7----------------------| 
D|---------------------------------------------------------------------------| 
A|---------------------------------------------------------------------------| 
E|---------------------------------------------------------------------------| 

e|---------------------------------------------------------------------------| 
B|---------------------------------------------------------------------------| 
G|---2/5(slow)-5/6-6-3-3-3-2----2/5(slow)--8-7-3-7--6-3-6--------------------| 
D|---------------------------------------------------------------------------| 
A|---------------------------------------------------------------------------| 
E|---------------------------------------------------------------------------| 


Pre Chorus: 

e|---------------------------------------------------------------------------| 
B|---9----9---7-7------------------------------------------------------------| 
G|----8--------8-------------------------------------------------------------| 
D|-----10--------------------------------------------------------------------| 
A|---------------------------------------------------------------------------| 
E|---------------------------------------------------------------------------| x2 


Chorus: 

e|---------------------------------------------------------------------------| 
B|---------------------------------------------------------------------------| 
G|--------------------12-13--------------------------------------------------| 
D|---11/15---11-15-----------------------------------------------------------| 
A|---------------------------------------------------------------------------| 
E|---------------------------------------------------------------------------| x2 

e|---------------------------------------------------------------------------| 
B|---------------------------------------------------------------------------| 
G|--------------------12-13-14--10-8-----------13----------------------------| 
D|---11/15---11-15------------------12--11-15--------------------------------| 
A|---------------------------------------------------------------------------| 
E|---------------------------------------------------------------------------| 

e|---------------------------------------------------------------------------| 
B|---------------------------------------------------------------------------| 
G|--------------------12-13--------------------------------------------------| 
D|---11/15---11-15-----------------------------------------------------------| 
A|---------------------------------------------------------------------------| 
E|---------------------------------------------------------------------------|  

e|---------------------------------------------------------------------------| 
B|---------------------------------------------------------------------------| 
G|--------------------12-13--14---10-----------------------------------------| 
D|---11/15---11-15-----------------------------------------------------------| 
A|---------------------------------------------------------------------------| 
E|---------------------------------------------------------------------------|  

e|---------------------------------------------------------------------------| 
B|---------------------------------------------------------------------------| 
G|--------------------12-13-14--10-8-------7------5--------------------------| 
D|---11/15---11-15------------------12---8---8-------------------------------| 
A|---------------------------------------------8----6------------------------| 
E|---------------------------------------------------------------------------| 

e|--1-1-1-1-4-4-4-4--------------------------------------------------| 
B|--1-1-1-1-6-6-6-6--------------------------------------------------| 
G|--2-2-2-2-6-6-6-6--------------------------------------------------| 
D|--3-3-3-3-6-6-6-6--------------------------------------------------| 
A|--3-3-3-3-4-4-4-4--------------------------------------------------| 
E|--1-1-1-1----------------------------------------------------------| x3 

e|---------------------------------------------------------------------------| 
B|---9----9---7-7------------------------------------------------------------| 
G|----8--------8-------------------------------------------------------------| 
D|-----10--------------------------------------------------------------------| 
A|---------------------------------------------------------------------------| 
E|---------------------------------------------------------------------------| x3 

  
verse 2: 

e|---------------------------------------------------------------------------| 
B|--------------------------------------------------6-6----------------------| 
G|---2/5(slow)-5/6-6-3-3-3-2----2/5(slow)--8-7-3-7--7-7----------------------| 
D|---------------------------------------------------------------------------| 
A|---------------------------------------------------------------------------| 
E|---------------------------------------------------------------------------| 

e|---------------------------------------------------------------------------| 
B|---------------------------------------------------------------------------| 
G|---2/5(slow)-5/6-6-3-3-3-2----2/5(slow)--8-7-3-7--6-3-6--------------------| 
D|---------------------------------------------------------------------------| 
A|---------------------------------------------------------------------------| 
E|---------------------------------------------------------------------------| 


Pre Chorus: 

e|---------------------------------------------------------------------------| 
B|---9----9---7-7------------------------------------------------------------| 
G|----8--------8-------------------------------------------------------------| 
D|-----10--------------------------------------------------------------------| 
A|---------------------------------------------------------------------------| 
E|---------------------------------------------------------------------------| x2 


Chorus: 

e|---------------------------------------------------------------------------| 
B|---------------------------------------------------------------------------| 
G|--------------------12-13--------------------------------------------------| 
D|---11/15---11-15-----------------------------------------------------------| 
A|---------------------------------------------------------------------------| 
E|---------------------------------------------------------------------------| x2 

e|---------------------------------------------------------------------------| 
B|---------------------------------------------------------------------------| 
G|--------------------12-13-14--10-8-----------13----------------------------| 
D|---11/15---11-15------------------12--11-15--------------------------------| 
A|---------------------------------------------------------------------------| 
E|---------------------------------------------------------------------------| 

e|---------------------------------------------------------------------------| 
B|---------------------------------------------------------------------------| 
G|--------------------12-13--------------------------------------------------| 
D|---11/15---11-15-----------------------------------------------------------| 
A|---------------------------------------------------------------------------| 
E|---------------------------------------------------------------------------|  

e|---------------------------------------------------------------------------| 
B|---------------------------------------------------------------------------| 
G|--------------------12-13--14---10-----------------------------------------| 
D|---11/15---11-15-----------------------------------------------------------| 
A|---------------------------------------------------------------------------| 
E|---------------------------------------------------------------------------|  

e|---------------------------------------------------------------------------| 
B|---------------------------------------------------------------------------| 
G|--------------------12-13-14--10-8-------7------5--------------------------| 
D|---11/15---11-15------------------12---8---8-------------------------------| 
A|---------------------------------------------8----6------------------------| 
E|---------------------------------------------------------------------------| 

e|--1-1-1-1-4-4-4-4--------------------------------------------------| 
B|--1-1-1-1-6-6-6-6--------------------------------------------------| 
G|--2-2-2-2-6-6-6-6--------------------------------------------------| 
D|--3-3-3-3-6-6-6-6--------------------------------------------------| 
A|--3-3-3-3-4-4-4-4--------------------------------------------------| 
E|--1-1-1-1----------------------------------------------------------| x3 

e|---------------------------------------------------------------------------| 
B|---9----9---7-7------------------------------------------------------------| 
G|----8--------8-------------------------------------------------------------| 
D|-----10--------------------------------------------------------------------| 
A|---------------------------------------------------------------------------| 
E|---------------------------------------------------------------------------| x3  
		  

See also:

tabs Ira! - Poço de Sensibilidade (Solo - Acustico Mtv) tabs Deep Purple - Smoke On The Water tabs Deep Purple - Smoke on the water (intro) tabs Ira! - Eu Quero Sempre Mais (Com Pitty, intro) tabs Deep Purple - Smoke on the Water (ver. 2) tabs Deep Purple - Knocking At Your Back Door
e-chords

Other versions:

tabs Speedy Ortiz - Raising The Skate
auto scroll beats size up size down change color hide chords drawings
tab show chords e-chords YouTube Clip e-chords hide all tabs e-chords go to top tab

share