Soundtracks

Aladdin - A Whole New World

Soundtracks

tabs Beginner beginner

by  CHARLO1

save to print version add songbook text version e-mail correct tuner
chordsukulelecavacokeyboardtabbassdrumsharmonicaflute Guitar Pro
close

there isn't a video lesson for this song

chords

Aladdin - A Whole New World

	  		Themes 
Aladdin's 'A Whole New World' 
Aladdin (Soundtrack From The Motion Picture) 
Tuning: Standard 
Transcribed by Soch H. 

Note: -This is the tab for the Vocals- 

Verse: 
|---------------------------------------------------------| 
|-7---8-7--------7---8-7----7---------7-------------------| 
|---9-----7--------9-----7----9---9-8---9--6-9-7-6-7------| 
|-----------7---------------------------------------------| 
|---------------------------------------------------------| 
|---------------------------------------------------------| 

|--------------------------------------------------------| 
|--------------------7---8-7-------7---8-7---7---------7-| 
|---6--9-7-------------9-----7-------9-----7---9---9-8---| 
|-9--------7-------------------7-------------------------| 
|--------------------------------------------------------| 
|--------------------------------------------------------| 

|------------------------------------| 
|----------------------------7-------| 
|-9--6--9-7-6-7-----6--9--7----------| 
|----------------9-------------------| 
|------------------------------------| 
|------------------------------------| 

Chorus: 
|-------7-------------7-------------------------9--7------| 
|-7--8-----10---7--8-----10---8--7-7----7-8-10-------10---| 
|---------------------------9-----------------------------| 
|---------------------------------------------------------| 
|---------------------------------------------------------| 
|---------------------------------------------------------| 

|---9-10---------------------------| 
|-7------10-------7----------------| 
|---------------7----9-7---7-9-----| 
|------------------------9---------| 
|----------------------------------| 
|----------------------------------| 

|-------7-------------7-------------------------9--7------| 
|-7--8-----10---7--8-----10---8--7-7----7-8-10-------10---| 
|---------------------------9-----------------------------| 
|---------------------------------------------------------| 
|---------------------------------------------------------| 
|---------------------------------------------------------| 

|---9-10--------------------------------------------------| 
|-7-------10------7---------8-7---------------------------| 
|---------------7----9-7--9-----7--6-7--------------------| 
|---------------------------------------------------------| 
|---------------------------------------------------------| 
|---------------------------------------------------------| 

Verse 2: (1:13) 




|---------------------------------------------------------| 
|-10----11-10---------10----11-10----10------------10-----| 
|----12-------10---------12-------10----12---12-11----12--| 
|----------------10---------------------------------------| 
|---------------------------------------------------------| 
|---------------------------------------------------------| 

|---------------------------------------------------------| 
|--------------------------10-----------------------------| 
|-9--12-10-9-10----9-12-10--------------------------------| 
|---------------12----------------------------------------| 
|---------------------------------------------------------| 
|---------------------------------------------------------| 

Chorus: 
|-------10-----------10---------------------------12-10------| 
|-10-11----13--10-11----13----11-10-10---10-11-13-------13---| 
|--------------------------12--------------------------------| 
|------------------------------------------------------------| 
|------------------------------------------------------------| 
|------------------------------------------------------------| 

|----12-13---------------------------------------------------| 
|-10-------13-----10----------11-10--------------------------| 
|--------------10----12-10-12-------10----10h12--------------| 
|--------------------------------------12--------------------| 
|------------------------------------------------------------| 
|------------------------------------------------------------| 

|-------10-----------10---------------------------12-10------| 
|-10-11----13--10-11----13----11-10-10---10-11-13-------13---| 
|--------------------------12--------------------------------| 
|------------------------------------------------------------| 
|------------------------------------------------------------| 
|------------------------------------------------------------| 

|----12-13---------------------------------------------------| 
|-10-------13-----10----------11-10--------------------------| 
|--------------10----12-10-12-------10--9-10-----------------| 
|------------------------------------------------------------| 
|------------------------------------------------------------| 
|------------------------------------------------------------| 

Outro: (2:01) 
|---------10-----------| 
|-10--11------13-------| 
|----------------------| 
|----------------------| 
|----------------------| 
|----------------------| (x6) 

(For you and me...) (2:13) 
|----------------------| 
|----------------------| 
|----12b14-12p10--9h10-| 
|-10-------------------| 
|----------------------| 
|----------------------| 

Ending Chord: (2:23) 
|---1--------| 
|---1--------| 
|---2--------| 
|---3--------| 
|---3--------| 
|---1--------| 
F Chord 
		  

Full key step upFull key step up
Half key step upHalf key step up
Half key step downHalf key step down
Full key step downFull key step down
auto scroll beats size up size down change color hide chords drawings
tab show chords e-chords YouTube Clip e-chords hide all tabs e-chords go to top tab

share