Soundgarden

Worse Dreams

Soundgarden

tabs

by  CARLLUZ

save to print version add songbook text version e-mail correct tuner
chordsukulelecavacokeyboardtabbassdrumsharmonicaflute Guitar Pro
close

there isn't a video lesson for this song

chords

Worse Dreams

	  		


Intro: 

G1:Repeat until fadeout 

|-17-15-15-17-15-15-19-15-15-17-15-15-15-19-15-15-15-17-15-15-15-19-15-15-17-15-15--| 
|-----------------------------------------------------------------------------------| 
|-----------------------------------------------------------------------------------| 
|-----------------------------------------------------------------------------------| 
|-----------------------------------------------------------------------------------| 
|-----------------------------------------------------------------------------------| 

|-21-21-17-17-19-17-17-21-17-17-19-19-17-17-21-17-17-19-19-17-17-21-17-17-19-19-15--| 
|-----------------------------------------------------------------------------------| 
|-----------------------------------------------------------------------------------| 
|-----------------------------------------------------------------------------------| 
|-----------------------------------------------------------------------------------| 
|-----------------------------------------------------------------------------------| 
  

G2: 
|------------------------------------------------------------------------------------| 
|------------------------------------------------------------------------------------| 
|--12b-------------------------------------------------------------------------------| 
|-----------------10b--------r-b---------r-b------r~--------10b--------r-b------r~---| 
|------------------------------------------------------------------------------------| 
|------------------------------------------------------------------------------------| 


G2: 
|--(17)---------------------------------------------------------------------| 
|--------(12~)--------------------(17-17-17)--------------------------------| 
|---------------------------------------------------------------------------| 
|---------------------------------------------------------------------------| 
|---------------------------------------------------------------------------| 
|---------------------------------------------------------------------------| 


G3: 
|------------------------------------------------------------x-21-\---------| 
|-------------------------------------------x----------------x--------------| 
|---9--\----------------12--\-----xx--------x-12\----xx------x--------------| 
|---------------12~---------------xx-12\----x--------xx-12~-----------------| 
|---------------------------------xx-----------------xx---------------------| 
|---------------------------------------------------------------------------| 


Verse Riff: 
|----------------------------------------------------| 
|----------------------------------------------------| 
|----------------------------------------------------|x2 
|----------------------------------------------------| 
|----------------------------------------------------| 
|--0--10-11-12---11---10---7--6h7\3--6/7\6-2--1------| 


Chorus: 
|-----------------------------------------------------0--0-0---------| 
|--3---3-3-x-x-----------x-x-3---3-3-x-x--------------0--0-0---------| 
|--3---3-3-x-x-----------x-x-3---3-3-x-x--------------0--0-0---------| 
|--3---3-3-x-x-5-/7-7--\-x-x-3---3-3-x-x-3-/5-5--5/7--0--0-0---------| 
|--3---3-3-x-x-5-/7-7--\-x-x-3---3-3-x-x-3-/5-5--5/7--0--0-0---------| 
|--------------5-/7-7--\-----------------3-/5-5--5/7-----------------| 

|--------------------------------------------------------------------| 
|--3---3-3-x-x-----------x-x-3---3-3-x-x-----------------------------| 
|--3---3-3-x-x-----------x-x-3---3-3-x-x-----------------------------| 
|--3---3-3-x-x-5-/7-7--\-x-x-3---3-3-x-x-3-/5-5--7--7/12-------------| 
|--3---3-3-x-x-5-/7-7--\-x-x-3---3-3-x-x-3-/5-5--7--7/12-------------| 
|--------------5-/7-7--\-----------------3-/5-5--7--7/12-------------| 

G2: 
|------------------| 
|------------------| 
|--12/15\12--9~----| 
|--12/15\12--9~----| 
|------------------| 
|------------------| 


Verse  



Fill: 
|-----------------------------------| 
|---7-0-7---/17--15--11--12-12~-----| 
|---7-0-7---/17--15--11--12-12~-----| 
|-----------------------------------| 
|-----------------------------------| 
|-----------------------------------| 


Chorus  



Bridge: 
|----------------| 
|----------------| 
|----(12)--14~---| 
|----------------| 
|----------------| 
|----------------| 

G1: 
|---------------------------------| 
|---------------------------------| 
|---------------------------------|x4 
|--/7-10-9-8-7--7-10-9-8-7--7-7---| 
|--/7-10-9-8-7--7-10-9-8-7--7-7---| 
|--/7-10-9-8-7--7-10-9-8-7--7-7---| 


G2: (an attempted combination of both lead parts) 
|----------------------------------------------------------15-15~---12~-----------------| 
|---------------------------------/17~--17~--17~----17b--r-15-15~---12~---5br-3-5-5-3~--| 
|--5p3--5p3-5p3-5p3-5p3--5p3-5p3--/17~--17~--17~----------------------------------------| 
|---------------------------------------------------------------------------------------| 
|---------------------------------------------------------------------------------------| 
|---------------------------------------------------------------------------------------| 


Chorus 


G2: 
|----------------------------------------------------------| 
|-3/5--7-5~-----12-10--3~---15-17---15-17-15-17-17-17-17~--| 
|---------------12-10--3~----------------------------------| 
|----------------------------------------------------------| 
|----------------------------------------------------------| 
|----------------------------------------------------------| 

-------------------------------------------------| 
---22p19\15~----17-17b-17-15----17br-15-15-17~---| 
-------------------------------------------------| 
-------------------------------------------------| 
-------------------------------------------------| 
-------------------------------------------------| 


|----------------------------------------------------------------------------| 
|----20b---15-x-15-17--15-17-15-17~----------15-15-17~--15-15-17~------------| 
|----------------------------------------------------------------------------| 
|----------------------------------------------------------------------------| 
|----------------------------------------------------------------------------| 
|----------------------------------------------------------------------------| 


Outro: 
G1: 
|-----------------------| 
|-----------------------| 
|-----------------------|x3 
|---3--/5---7--7/12-----| 
|---3--/5---7--7/12-----| 
|---3--/5---7--7/12-----| 


G2: 
|-------------------------------------------| 
|-------------------------------------------| 
|-------------------------------------------| 
|-------------------------------------------| 
|-------------------------------------------| 
|--7/8--9/12--14/15--17/19--19/21~----------| 

|---------------------------------------------------------------------------------| 
|----------8h10p8~---------12--15-15p12-12---8--5-5~---0-0-0-0-0--3/5--3/5-0-0-0--| 
|------------------------------------------------------0-0-0-0-0-----------0-0-0--| 
|--x\\---------------x-x\\--------------------------------------------------------| 
|--x\\---------------x-x\\--------------------------------------------------------| 
|---------------------------------------------------------------------------------| 

|--------------------------------------------------0-0-0---------------------------------| 
|--15-17br-17~-0-0-0--3/5--3/5-0-0-0--15-17--15-17-0-0-0---------------------------------| 
|--------------0-0-0-----------0-0-0----------------------3-5-3-5br-5-5-5-5-5------------| 
|----------------------------------------------------------------------------------------| 
|----------------------------------------------------------------------------------------| 
|----------------------------------------------------------------------------------------| 

 
		  

See also:

tabs Alice in Chains - Again tabs Nirvana - Heart-shaped Box tabs Nirvana - All Apologies Acoustic tabs Pearl Jam - Better Man tabs Pearl Jam - Alone tabs Nirvana - Smells like teen Spirit - Solo
e-chords

Other versions:

tabs Soundgarden - Worse Dreams
auto scroll beats size up size down change color hide chords drawings
tab show chords e-chords YouTube Clip e-chords hide all tabs e-chords go to top tab

share