Soundgarden

Sub Pop Rock City

Soundgarden

tabs

by  JOAOEWERTON

save to print version add songbook text version e-mail correct tuner
chordsukulelecavacokeyboardtabbassdrumsharmonicaflute Guitar Pro
close

there isn't a video lesson for this song

chords

Sub Pop Rock City

	  		

INTRO (BASS)  

e|---------------------| 
B|---------------------| 
G|---------------------| 
D|---------------------|        4x 
A|---------------------| 
E|-3-3-3-3-3-3-3-3-----| 

e|-----------------------------------| 
B|-----------------------------------| 
G|-----------------------------------| 
D|-----------------------------------|       4x 
A|---------1-1-1-4-4-----------------| 
E|-0-3-3-3-----------1-1-1-3-3-3-1---| 

verse 1 

e|------------------------------------| 
B|----------3/4\3--0------------------| 
G|----------3/4\3--0------------------| 
D|--5-5--x---------0------------------|        8x 
A|--5-5--x----------------------------| 
E|--3-3--x----------------------------| 

Interlude 

e|-----------------------------------| 
B|-----------------------------------| 
G|-----------------------------------| 
D|-----------------------------------|       2x 
A|---------1-1-1-4-4-----------------| 
E|-0-3-3-3-----------1-1-1-3-3-3-1---| 
PM . . . . . . . . . . . . . . . .  

verse 2 

e|------------------------------------| 
B|----------3/4\3--0------------------| 
G|----------3/4\3--0------------------| 
D|--5-5--x---------0------------------|        8x 
A|--5-5--x----------------------------| 
E|--3-3--x----------------------------| 

Chorus 1 

e|--------------------------------------------| 
B|--------------------------------------------| 
G|--------------------------------------------| 
D|------------------------5-------------------|          4x 
A|-7--7-9-7-7-9-x-5-----2---5-----------------| 
E|-5--5-5-5-5-5-x-3--/3-----------------------| 

e|--------------------------------------------| 
B|--------------------------------------------| 
G|--------------------------------------------| 
D|--------------------------------------------|          3x 
A|-7--7-9-7-7-9-x-----------------------------| 
E|-5--5-5-5-5-5-x-----------------------------| 

e|--------------------------------------------| 
B|--------------------------------------------| 
G|--------------------------------------------| 
D|--------------------------------------------| 
A|--7/-17-17-17-17-17-17----------------------| 
E|--5/-15-15-15-15-15-15----------------------| 

BREAK  

This is the phone call section. For this, the intro on the bass 
is just played 8 times: 

e|-----------------------------------| 
B|-----------------------------------| 
G|-----------------------------------| 
D|-----------------------------------|       8x 
A|---------1-1-1-4-4-----------------| 
E|-0-3-3-3-----------1-1-1-3-3-3-1---| 


Solo 

Verse riff is played 16 times underneath: 

e|------------------------------------| 
B|----------3/4\3--0------------------| 
G|----------3/4\3--0------------------| 
D|--5-5--x---------0------------------|        16x 
A|--5-5--x----------------------------| 
E|--3-3--x----------------------------| 

The solo is impossible to hear exactly what is going on,  
but I suggest going wild with some fast picking and wah wah 

Chorus 2 

e|------------------3----------------| 
B|------7--7\-----5------------------| 
G|-----------------------------------| 
D|--5/7-------3/5--------------------|    8x 
A|-----------------------------------| 
E|-----------------------------------| 

OUTRO (detune or wammy) 

e|-------------------------------------------------------| 
B|-------------------------------------------------------| 
G|-------------------------------------------------------| 
D|-------------------------------------------------------| 
A|-------------------------------------------------------| 
E|-0~~~~~~~~~~~~~~~~~0~~~~~~~~~~~~~~~~0~~~~~~~~~~~~~~----| 

Once that is done, pick the strings a bit at the headstock 
between the nut and the tuners 

LYRICS: 

(that's such a nice c**t) 

uh 
aaaaaa-uh 
(I wish I knew how to dance) 
(Just leave it, Kim) 

I'm not stoned, but I wanted to tell ya 
when I'm in the mood, well I could think of playing here 
Going to somwhere where the rock's so heavy 
with all them sex dogs in my chevy 

At the X T C party, everybody you're invited 
cool, give it dude, we're plastic like you  
Goin to a show, that rock's all night 
everyone I hate is at the party tonight 

I said,  
sub pop rock city, 
sub pop rock city,  
sub pop rock city,  
sub pop rock city 

(laughing and cheering) 

rock city 

Hello? 
This is John 
Hey John  
I just wanna know, what, what the heck's goin on 
Well y'know, I had this problem.. 
What the heck's goin on? 
Ya okay, well, do you think you'd have too much trouble if we got rid of our sideburns? 
At your earliest convenience 
Well, I know you've said that before, but do you think Bruce would mind? 
This is Bruce Pavitt 
Oh, Bruce, I mean, K, can we have our, drummer back, Bruce 
Bye! 

sub pop rock city, 
sub pop rock city,  
sub pop rock city,  
sub pop rock city. 
sub pop rock city, 
sub pop rock city, 
sub pop rock city,  

I just wanna know, what, what the heck's goin on 
Pavie, bummer, baby 

Bye! 



************************************ 

| /   Slide up 
| \   Slide down 
| x   Dead note 
| PM  Palm mute 
| ~   Vibrato 

************************************ 
		  

Full key step upFull key step up
Half key step upHalf key step up
Half key step downHalf key step down
Full key step downFull key step down
hide glossary

See also:

tabs Alice in Chains - Again tabs Nirvana - Heart-shaped Box tabs Nirvana - All Apologies Acoustic tabs Pearl Jam - Better Man tabs Pearl Jam - Alone tabs Nirvana - Smells like teen Spirit - Solo
e-chords

Other versions:

tabs Soundgarden - Sub Pop Rock City
auto scroll beats size up size down change color hide chords drawings
tab show chords e-chords YouTube Clip e-chords hide all tabs e-chords go to top tab

share