Soundgarden

Eyelid's Mouth

Soundgarden

tabs

by  IRONPOWER4EVER

save to print version add songbook text version e-mail correct tuner
chordsukulelecavacokeyboardtabbassdrumsharmonicaflute Guitar Pro
close

there isn't a video lesson for this song

chords

Eyelid's Mouth

	  		

Verse:   
                     x2 
|----------------------|--------------------| 
|----------------------|--------------------| 
|-------8---6----------|--------------------| x2 
|---6h8---6------6h8~--|--6---6-5-4~--------| 
|--------------6-------|--------------------| 
|----------------------|--------------------| 

                      x2 
|----------------------|----------------------------------------| 
|----------------------|----------------------------------------| 
|-------8---6----------|--6--------------------------6-6--------| 
|---6h8---6------6h8~--|--6---6-5-4~-----------------6-6--------| 
|--------------6-------|---------------7/9-7/9\7-6---4-4--------| 
|----------------------|----------------------------------------| 



Chorus: 
                       x3 
|------------------------|-------------------| 
|------------------------|-------------------| 
|------------------------|--8---8---8--------| x3 
|-------8----------------|--8---8---8--------| 
|------------------------|--6---6---6--------| 
|---/6------4-5-4--2-----|-------------------| 


G2: 
               x3 
|-----------------|--------| 
|-----------------|--------| 
|--6/8\6--8br--6~-|--------| 
|-----------------|--8~----| 
|-----------------|--------| 
|-----------------|--------| 



2nd Verse: 
                      x2 
|----------------------|----------------------------------------| 
|----------------------|----------------------------------------| 
|-------8---6----------|--6--------------------------6-6--------| 
|---6h8---6------6h8~--|--6---6-5-4~-----------------6-6--------| 
|--------------6-------|---------------7/9-7/9\7-6---4-4--------| 
|----------------------|----------------------------------------| 


2nd Chorus: 
                       x3 
|------------------------|-------------------| 
|------------------------|-------------------| 
|------------------------|--8---8---8--------| x4 
|-------8----------------|--8---8---8--------| 
|------------------------|--6---6---6--------| 
|---/6------4-5-4--2-----|-------------------| 


G2: 
               x3 
|-----------------|--------| 
|-----------------|--------| 
|--6/8\6--8br--6~-|--------| x2 
|-----------------|--8~----| 
|-----------------|--------| 
|-----------------|--------| 

|----------------------------------------------------------| 
|----------------------------------------------------------| 
|--10br--8--6-8-8------10br--8--6-8-----10br--8--6-8-8-----| x2 
|-----------------8~----------------8~-----------------8~--| 
|----------------------------------------------------------| 
|----------------------------------------------------------| 



Solo Backing: 
|-----------------------------| 
|-----------------------------| 
|-----------------------------| 
|-----------------------------| 
|-----------------------------| 
|---6-6-6--6--6-6-6-6--4/6-9--| 



Solo (not the complete solo, but it should be good enough to get you started) 

|-----------------------------------------------------------------------11-11b-11-----| 
|--12b---11-11-9-11-9-11-----------9-11----9h11-11b-(11)r-11-9h11p9-------------------| 
|------------------------------/10----------------------------------------------------| 
|-------------------------------------------------------------------------------------| 
|-------------------------------------------------------------------------------------| 
|-------------------------------------------------------------------------------------| 

|---9-10-9---------------------------------------------------------------------------------------------| 
|----------11------11-13-11----11-11h13p11\------------------------------------9h11b-(11-11-11-11-11)r-| 
|---------------------------13--------------------8h10--8h10p8\7--8/10~-----10-------------------------| 
|----------------------------------------------10------------------------------------------------------| 
|------------------------------------------------------------------------------------------------------| 
|------------------------------------------------------------------------------------------------------| 

|--11b--r--9h10-10-10--10-10-10-10-9h10-11--9h10-10-10--10-10-10-10-9h10-11---| 
|-----------------------------------------------------------------------------| 
|-----------------------------------------------------------------------------| 
|-----------------------------------------------------------------------------| 
|-----------------------------------------------------------------------------| 
|-----------------------------------------------------------------------------| 

|-9h10-10-10--10-10-10-10-9h10-11--9h10-10-10--10-10-10-10-9h10-------| 
|---------------------------------------------------------------11----| 
|---------------------------------------------------------------------| 
|---------------------------------------------------------------------| 
|---------------------------------------------------------------------| 
|---------------------------------------------------------------------| 
 
		  

See also:

tabs Alice in Chains - Again tabs Nirvana - Heart-shaped Box tabs Nirvana - All Apologies Acoustic tabs Pearl Jam - Better Man tabs Pearl Jam - Alone tabs Nirvana - Smells like teen Spirit - Solo
e-chords

Other versions:

tabs Soundgarden - Eyelid's Mouth
auto scroll beats size up size down change color hide chords drawings
tab show chords e-chords YouTube Clip e-chords hide all tabs e-chords go to top tab

share