Sonuvabitch

Another Fake

Sonuvabitch

tabs nolevel nolevel

by  ROBEPOIEL

save to print version add songbook text version e-mail correct tuner
chordsukulelecavacokeyboardtabbassdrumsharmonicaflute Guitar Pro
close

there isn't a video lesson for this song

chords

Another Fake

	  		
Guitar I - (C#G#C#F#A#D#) "Lead" 
Guitar II - (C#G#C#F#A#D#) "Rhythm" 


Intro/Verse: 

Guitar II: 
D#|-------------------------|----------------------------------| 
A#|-------------------------|----------------------------------| 
F#|-----------0-------------|----------------------------------| 
C#|--------7-----7----------|--------3-----------5-------------| 
G#|-----7-----------7-------|-----3-----3-----5-----5----------| 
C#|--7----------------------|--3-----------5-------------------| 


then 

Guitar I: 
D#|-----------------------------|----------------------------------| 
A#|-----------------------------|----------------------------------| 
F#|-----------------------------|----------------------------------| 
C#|--7--x-x--7--7----7--7--x-x--|--3--x-x--3--5--x-x--5--5---------| 
G#|--7--x-x--7--7----7--7--x-x--|--3--x-x--3--5--x-x--5--5---------| 
C#|--7--x-x--7--7----7--7--x-x--|--3--x-x--3--5--x-x--5--5---------| 


Chorus: 

Guitar I: 
D#|----------------------------|-----------------------------| 
A#|----------------------------|-----------------------------| 
F#|--14--12---14---12--17--19--|--14--12---14----14--12--10--| 
C#|----------------------------|-----------------------------| 
G#|--12--10---12---10--15--17--|--12--10---12----12--10--8---| 
C#|----------------------------|-----------------------------| 

D#|----------------------------|-----------------------------| 
A#|----------------------------|-----------------------------| 
F#|--14--12---14---12--17--19--|--12--12--12--12--14--14--14-| 
C#|----------------------------|-----------------------------| 
G#|--12--10---12---10--15--17--|--10--10--10--10--12--12--12-| 
C#|----------------------------|-----------------------------| 


Guitar II: 
D#|-----------------------|-----------------------| 
A#|-----------------------|-----------------------| 
F#|-----------------------|-----------------------| 
C#|--7--7----7----7----7--|--3--3----3----3----3--| 
G#|--7--7----7----7----7--|--3--3----3----3----3--| 
C#|--7--7----7----7----7--|--3--3----3----3----3--| 

D#|-----------------------|-----------------------| 
A#|-----------------------|-----------------------| 
F#|--5--5----5----5----5--|-----------------------| 
C#|--5--5----5----5----5--|--5--5----5----5----5--| 
G#|--3--3----3----3----3--|--5--5----5----5----5--| 
C#|-----------------------|--5--5----5----5----5--| 


Interlude: 

Guitar II: 
D#|-----------------------|-----------------------| 
A#|-----------------------|-----------------------| 
F#|-----------------------|-----------------------| 
C#|--7--7-----------------|--3--3------5--5-------|  x2 
G#|--7--7-----------------|--3--3------5--5-------| 
C#|--7--7-----------------|--3--3------5--5-------| 

D#|--------------------------------|----------------------------| 
A#|--------------------------------|----------------------------| 
F#|--------------------------------|----------------------------| 
C#|--7--7--------------------------|--3--3---------5--5---------| 
G#|--7--7--10--10--10--10--10--10--|--3--3--10--7--5--5--10--7--| 
C#|--7--7--------------------------|--3--3---------5--5---------| 

D#|--------------------------------|------------------------------| 
A#|--------------------------------|------------------------------| 
F#|--------------------------------|------------------------------| 
C#|--7--7--------------------------|------------------------------| 
G#|--7--7--10--10--10--10--10--10--|--10--7--10--7--10--7--10--7--| 
C#|--7--7--------------------------|------------------------------| 


Verse 

... 

Chorus 

... 

Bridge 

Guitar I: 
     .  .  .  .  .  .   .  . 
D#|---------------------------| 
A#|---------------------------| 
F#|---------------------------| 
C#|---------------------------|  x3 
G#|--7--7--7--5--7--10--7--5--| 
C#|---------------------------| 


D#|--------------------------------| 
A#|--------------------------------| 
F#|--------------------------------| 
C#|--------------------------------| 
G#|--7--7--10--12--14--15--14--12--| 
C#|--------------------------------| 

Guitar II: 
     .  .  .  .  .  .  .  .     .  .  .  .  .  .  .  . 
D#|--------------------------|--------------------------| 
A#|--------------------------|--------------------------| 
F#|--------------------------|--------------------------| 
C#|--7--7--7--7--7--7--7--7--|--3--3--3--3--3--3--3--3--| 
G#|--7--7--7--7--7--7--7--7--|--3--3--3--3--3--3--3--3--| 
C#|--7--7--7--7--7--7--7--7--|--3--3--3--3--3--3--3--3--| 

     .  .  .  .  .  .  .  .     .  .  .  .  .  .  .  . 
D#|--------------------------|--------------------------| 
A#|--------------------------|--------------------------| 
F#|--5--5--5--5--5--5--5--5--|--------------------------| 
C#|--5--5--5--5--5--5--5--5--|--5--5--5--5--5--5--5--5--| 
G#|--3--3--3--3--3--3--3--3--|--5--5--5--5--5--5--5--5--| 
C#|--------------------------|--5--5--5--5--5--5--5--5--| 

Interlude: 

Guitar II: 

D#|--------------------------|--------------------------| 
A#|--------------------------|--------------------------| 
F#|--------------------------|--------------------------| 
C#|--7--7--7--7--7--7--7--7--|--3--3--3--3--3--3--3--3--| 
G#|--7--7--7--7--7--7--7--7--|--3--3--3--3--3--3--3--3--| 
C#|--7--7--7--7--7--7--7--7--|--3--3--3--3--3--3--3--3--| 


D#|--------------------------|--------------------------| 
A#|--------------------------|--------------------------| 
F#|--5--5--5--5--5--5--5--5--|--------------------------| 
C#|--5--5--5--5--5--5--5--5--|--5--5--5--5--5--5--5--5--| 
G#|--3--3--3--3--3--3--3--3--|--5--5--5--5--5--5--5--5--| 
C#|--------------------------|--5--5--5--5--5--5--5--5--| 

Guitar I: 
D#|---------------------------|--------------------------------| 
A#|---------------------------|--------------------------------| 
F#|--6--6--6--6--6--7--9--12--|--14--14--14--14--14--12--10-7--| 
C#|---------------------------|--------------------------------| 
G#|--4--4--4--4--4--5--7--10--|--12--12--12--12--12--10--8--5--| 
C#|---------------------------|--------------------------------| 

D#|--------------------------|--------------------------| 
A#|--------------------------|--------------------------| 
F#|--9--9--9--9--9--9--5--5--|--7--7--7--7--7--7--4--4--| 
C#|--------------------------|--------------------------| 
G#|--7--7--7--7--7--7--3--3--|--5--5--5--5--5--5--2--2--| 
C#|--------------------------|--------------------------| 

Last Chorus 


| :  rest (stop the note/chord from ringing) 
| .  palm mute note 
| /  slide up 
| \  slide down 
| h  hammer-on 
| p  pull-off 
| ~  vibrato/let note ring out 
| +  harmonic 
| x  Mute note  
		  

See also:

tabs Doa - Sexyest Girl tabs Deep Purple - Smoke on the water (intro) tabs Deep Purple - Highway Star tabs Albert Hammond Jr - Holiday tabs Deep Purple - Deep Purple - Smoke On The Water tabs Deep Purple - Ted The Mechanic
e-chords

Other versions:

tabs Sonuvabitch - Another Fake
auto scroll beats size up size down change color hide chords drawings
tab show chords e-chords YouTube Clip e-chords hide all tabs e-chords go to top tab

share with facebook