Sons Of The Sea

Untethered

Sons Of The Sea

tabs nolevel nolevel

by  IRONPOWER4EVER

save to print version add songbook text version e-mail correct tuner
chordsukulelecavacokeyboardtabbassdrumsharmonicaflute Guitar Pro
close

there isn't a video lesson for this song

chords

Untethered

	  		 

Intro0:01 to 0:08 
E|------------------------------------------| 
B|------------------------------------------| 
G|------------------------------------------| 
D|------------------------------------------| 
A|------------------------------------------| 
E|--66666666666666666666666666666666666666--| 

+Intro 0:08 to 0:24 
Keyboard arranged for guitar 0:08 to 0:24 
E|---------------------|    |----------------| 
B|---------------------|    |----------------| 
G|--14-12--------------| or |-14^12^10--9-10-| 
D|--------15----14-15--|    |---------10-----| 
A|-----------15--------|    |----------------| 
E|---------------------|    |----------------| 
Rhythm Guitar 0:08 to 0:24 
E|-------------------|-------------------| 
B|-------------------|-------------------| 
G|--7-7-7-7-7-7-7-7--|--2-2-2-2-2-2-2-2--| 
D|--8-8-8-8-8-8-8-8--|--3-3-3-3-3-3-3-3--| 
A|--8-8-8-8-8-8-8-8--|--3-3-3-3-3-3-3-3--| 
E|--6-6-6-6-6-6-6-6--|--1-1-1-1-1-1-1-1--| 


verse 1 @0:24 to 0:32 
Play part 1 then 2 twice (those are 1s not 11s) 
Rhythm part 1 (Bass arranged for guitar) 
E|------------------------------------------| 
B|------------------------------------------| 
G|------------------------------------------| 
D|------8----8----8---8------3----3----3----| 
A|------------------------------------------| 
E|--66---66---66---66--6/11---11---11---11--| 
Acoustic Guitar part 1 
E|-------------------------------------------| 
B|-------------------------------------------| 
G|--7-7-7-7-7-7-7-7-7-7-2-2-2-2-2-2-2-2-2-2--| 
D|--8-8-8-8-8-8-8-8-8-8-3-3-3-3-3-3-3-3-3-3--| 
A|--8-8-8-8-8-8-8-8-8-8-3-3-3-3-3-3-3-3-3-3--| 
E|--6-6-6-6-6-6-6-6-6-6-1-1-1-1-1-1-1-1-1-1--| 
Rhythm part 2 
E|-------------------------------------------------| 
B|-------------------------------------------------| 
G|--------------------------7--7--7--7--5--5--5--5-| 
D|--8--8--8--8--5--5--5--5-------------------------| 
A|-------------------------5--5--5--5--3--3--3--3--| 
E|-6--6--6--6--3--3--3--3--------------------------| 
Acoustic Guitar part 2 
E|------------------------------------------------| 
B|----------------------6-6-6-6-6-----------------| 
G|--7-7-7-7-7-3-3-3-3-3-7-7-7-7-7-9--9--9--9--9---| 
D|--8-8-8-8-8-3-3-3-3-3-7-7-7-7-7-10-10-10-10-10--| 
A|--8-8-8-8-8-5-5-5-5-5-5-5-5-5-5-10-10-10-10-10--| 
E|--6-6-6-6-6-3-3-3-3-3-5-5-5-5-5-8--8--8--8--8---| 
Rhythm 2 (play in place of Acoustic Guitar part 2) 
E|-------------------|-------------------| 
B|-------------------|-------------------| 
G|--7-7-7-7-7-7-7-7--|--2-2-2-2-2-2-2-2--| 
D|--8-8-8-8-8-8-8-8--|--3-3-3-3-3-3-3-3--| 
A|--8-8-8-8-8-8-8-8--|--3-3-3-3-3-3-3-3--| 
E|--6-6-6-6-6-6-6-6--|--1-1-1-1-1-1-1-1--| 


Post Verse 
Bass arranged for guitar @0:55 
E|--------------------------------------------------| 
B|--------------------------------------------------| 
G|--------------------------------------------------| 
D|--------------------------------------------------| 
A|--------------------------------------------------| 
E|--33-333-333-333-3/66-666-666-666---/18-18-18-18--| 


Chorus 
Keyboard arranged for guitar 
E|---------------------| 
B|---------------------| 
G|--14-12--------------| 
D|--------15----14-15--| 
A|-----------15--------| 
E|---------------------| 
Rhythm Guitar 
E|-------------------|-------------------| 
B|-------------------|-------------------| 
G|--7-7-7-7-7-7-7-7--|--2-2-2-2-2-2-2-2--| 
D|--8-8-8-8-8-8-8-8--|--3-3-3-3-3-3-3-3--| 
A|--8-8-8-8-8-8-8-8--|--3-3-3-3-3-3-3-3--| 
E|--6-6-6-6-6-6-6-6--|--1-1-1-1-1-1-1-1--| 


verse 2 
Rhythm (Bass) 
E|------------------------------------------| 
B|------------------------------------------| 
G|------------------------------------------| 
D|------8----8----8---8------3----3----3----| 
A|------------------------------------------| 
E|--66---66---66---66--6/11---11---11---11--| 
Acoustic Guitar 
E|-------------------------------------------| 
B|-------------------------------------------| 
G|--7-7-7-7-7-7-7-7-7-7-2-2-2-2-2-2-2-2-2-2--| 
D|--8-8-8-8-8-8-8-8-8-8-3-3-3-3-3-3-3-3-3-3--| 
A|--8-8-8-8-8-8-8-8-8-8-3-3-3-3-3-3-3-3-3-3--| 
E|--6-6-6-6-6-6-6-6-6-6-1-1-1-1-1-1-1-1-1-1--| 

verse 2 continued 
Rhythm part 1 (Bass arranged for guitar) 
E|------------------------------------------| 
B|------------------------------------------| 
G|------------------------------------------| 
D|------8----8----8---8------3----3----3----| 
A|------------------------------------------| 
E|--66---66---66---66--6/11---11---11---11--| 
Acoustic Guitar part 1 
E|-------------------------------------------| 
B|-------------------------------------------| 
G|--7-7-7-7-7-7-7-7-7-7-2-2-2-2-2-2-2-2-2-2--| 
D|--8-8-8-8-8-8-8-8-8-8-3-3-3-3-3-3-3-3-3-3--| 
A|--8-8-8-8-8-8-8-8-8-8-3-3-3-3-3-3-3-3-3-3--| 
E|--6-6-6-6-6-6-6-6-6-6-1-1-1-1-1-1-1-1-1-1--| 
Rhythm part 2 
E|-------------------------------------------------| 
B|-------------------------------------------------| 
G|--------------------------7--7--7--7--5--5--5--5-| 
D|--8--8--8--8--5--5--5--5-------------------------| 
A|-------------------------5--5--5--5--3--3--3--3--| 
E|-6--6--6--6--3--3--3--3--------------------------| 
Acoustic Guitar part 2 
E|------------------------------------------------| 
B|----------------------6-6-6-6-6-----------------| 
G|--7-7-7-7-7-3-3-3-3-3-7-7-7-7-7-9--9--9--9--9---| 
D|--8-8-8-8-8-3-3-3-3-3-7-7-7-7-7-10-10-10-10-10--| 
A|--8-8-8-8-8-5-5-5-5-5-5-5-5-5-5-10-10-10-10-10--| 
E|--6-6-6-6-6-3-3-3-3-3-5-5-5-5-5-8--8--8--8--8---| 


Post Verse 
Bass arranged for guitar 
E|--------------------------------------------------| 
B|--------------------------------------------------| 
G|--------------------------------------------------| 
D|--------------------------------------------------| 
A|--------------------------------------------------| 
E|--33-333-333-333-3/66-666-666-666---/18-18-18-18--| 


Chorus/Bridge 
Keyboard arranged for guitar 
E|---------------------|--19-17--------------| 
B|---------------------|--------20----20-22--| 
G|--14-12--------------|-----------19--------| 
D|--------15----14-15--|---------------------| 
A|-----------15--------|---------------------| 
E|---------------------|---------------------| 
Rhythm 
E|-------------------|-------------------| 
B|-------------------|-------------------| 
G|--7-7-7-7-7-7-7-7--|--2-2-2-2-2-2-2-2--| 
D|--8-8-8-8-8-8-8-8--|--3-3-3-3-3-3-3-3--| 
A|--8-8-8-8-8-8-8-8--|--3-3-3-3-3-3-3-3--| 
E|--6-6-6-6-6-6-6-6--|--1-1-1-1-1-1-1-1--| 

Post Bridge @2:39 
Rhythm x2 
Play the 6 note twice as long as indicated 
E|--------------------------------------| 
B|--------------------------------------| 
G|--------------------------------------| 
D|--------------------------------------| 
A|--------------------------------------| 
E|--666666666666666666/111111111111111--| 
Acoustic Melody 
E|----------------------------------------| 
B|----------------------------------------| 
G|-------------2-----------------2--------| 
D|--2-3~---2-3---5-3--2------2-3---5-3-2--| 
A|-----------------------3----------------| 
E|----------------------------------------| 
Bass continued 
E|--------------------------------------| 
B|--------------------------------------| 
G|--------------------------------------| 
D|--------------------------------------| 
A|--------------------------------------| 
E|--000000000000000000/111111111111111--| 
Acoustic Melody 
E|--00----00----00----00----00----00----| 
B|--55----55----55----55----55----55----| 
G|--55----55----55----55----55----55----| 
D|--33----33----33----33----33----33----| 
A|--------------------------------------| 
E|--------------------------------------| 


Keyboard arranged for guitar 
E|---------------------| 
B|---------------------| 
G|--14-12--------------| 
D|--------15----14-15--| 
A|-----------15--------| 
E|---------------------| 
Electric Guitar 
Repeat as necessary 
E|----------------------------| 
B|----------------------------| 
G|----------------------------| 
D|--14-14b------------14-14b--| 
A|----------------------------| 
E|----------------------------| 


Outro 
Electric Guitar (very faint, but there. Gallop the notes) 
Play until the end 
E|-----------------------------------------------------| 
B|-----------------------------------------------------| 
G|-----------------------------------------------------| 
D|-----------------------------------------------------| 
A|-------------/7~-7777/10-8/7-8~----------------------| 
E|--0-000-0-000-------------------6/1-1-111-1/5-7-8-0--| 
		  

See also:

tabs Deep Purple - Sometimes a Feel Like Screaming tabs Deep Purple - Mistreated tabs Deep Purple - Smoke on the Water (ver. 2) tabs Ira! - Vitrine Viva tabs Doa - Sexyest Girl tabs Deep Purple - Ted The Mechanic
e-chords

Other versions:

tabs Sons Of The Sea - Untethered
auto scroll beats size up size down change color hide chords drawings
tab show chords e-chords YouTube Clip e-chords hide all tabs e-chords go to top tab

share with facebook