Sonic Dash

Deadman Walk

Sonic Dash

tabs

by  PAULANTUNES

save to print version add songbook text version e-mail correct tuner
chordsukulelecavacokeyboardtabbassdrumsharmonicaflute Guitar Pro
close

there isn't a video lesson for this song

chords

Deadman Walk

	  		

Riff  1: (padrão pra todas as estrofes) 

 
E|----------------------------------------------------- 
B|----------------------------------------------------- 
G|----------------------------------------------------- 
D|----------------------------------------------------- 
A|----------------------------------------------------- 
D|--0--0--0--0--3--3--3--3--0--0--0--0--3--2--1--1-- 
 

(repete a partir das cordas soltas) 



Riff 1 - palm mute : 

 
E|-------------------------------------------------- 
B|-------------------------------------------------- 
G|-------------------------------------------------- 
D|--0--0--0--0--3--3--3--3--0--0--0--0--3--2--1--1-- 
A|--0--0--0--0--3--3--3--3--0--0--0--0--3--2--1--1-- 
D|--0--0--0--0--3--3--3--3--0--0--0--0--3--2--1--1-- 
 

(I'm a bastard son of the envy and angry) 





 
E|-------------------------------------------------- 
B|-------------------------------------------------- 
G|-------------------------------------------------- 
D|--0--0--0--0--3--3--3--3--0--0--0--0--3--2--1--1-- 
A|--0--0--0--0--3--3--3--3--0--0--0--0--3--2--1--1-- 
D|--0--0--0--0--3--3--3--3--0--0--0--0--3--2--1--1-- 
 

(I thought it right but i had done all wrong) 


 
E|-------------------------------------------------- 
B|-------------------------------------------------- 
G|-------------------------------------------------- 
D|--0--0--0--0--3--3--3--3--0--0--0--0--3--2--1--1-- 
A|--0--0--0--0--3--3--3--3--0--0--0--0--3--2--1--1-- 
D|--0--0--0--0--3--3--3--3--0--0--0--0--3--2--1--1-- 
 

(All these voices are letting me nervous) 

 
E|-------------------------------------------------- 
B|-------------------------------------------------- 
G|-------------------------------------------------- 
D|--0--0--0--0--3--3--3--3--0--0--0--0--3--2--1--1-- 
A|--0--0--0--0--3--3--3--3--0--0--0--0--3--2--1--1-- 
D|--0--0--0--0--3--3--3--3--0--0--0--0--3--2--1--1-- 
 
(I'm rotting inside but killing in the outside) 


Riff 2: 

 
E|------------------------------------ 
B|------------------------------------ 
G|------------------------------------ 
D|--0--0------5--5------0------5v----- 
A|--0--0------3--3------0------3------ 
D|--0--0----------------0------------- 
 


 
E|------------------------------------ 
B|------------------------------------ 
G|------------------------------------ 
D|--0--0------5--5------0------5v----- 
A|--0--0------3--3------0------3------ 
D|--0--0----------------0------------- 
 



 
E|------------------------------------ 
B|------------------------------------ 
G|------------------------------------ 
D|--0--0------5--5------0------5v----- 
A|--0--0------3--3------0------3------ 
D|--0--0----------------0------------- 
 



 
E|-------------------------------------- 
B|-------------------------------------- 
G|-------------------------------------- 
D|--------------------------7--5--3--3-- 
A|--------------------------7--5--3--3-- 
D|--7--7--7--7--7--7--7--7--7--5--3--2-- 
 


 
E|-------------------------------------------------- 
B|-------------------------------------------------- 
G|-------------------------------------------------- 
D|--0--0--0--0--3--3--3--3--0--0--0--0--3--2--1--1-- 
A|--0--0--0--0--3--3--3--3--0--0--0--0--3--2--1--1-- 
D|--0--0--0--0--3--3--3--3--0--0--0--0--3--2--1--1-- 
 

(Disgust and hate have grown like my beard) 





 
E|-------------------------------------------------- 
B|-------------------------------------------------- 
G|-------------------------------------------------- 
D|--0--0--0--0--3--3--3--3--0--0--0--0--3--2--1--1-- 
A|--0--0--0--0--3--3--3--3--0--0--0--0--3--2--1--1-- 
D|--0--0--0--0--3--3--3--3--0--0--0--0--3--2--1--1-- 
 

(They follow me when i'm drunk at the street) 


 
E|-------------------------------------------------- 
B|-------------------------------------------------- 
G|-------------------------------------------------- 
D|--0--0--0--0--3--3--3--3--0--0--0--0--3--2--1--1-- 
A|--0--0--0--0--3--3--3--3--0--0--0--0--3--2--1--1-- 
D|--0--0--0--0--3--3--3--3--0--0--0--0--3--2--1--1-- 
 

(There is an endless run) 

 
E|-------------------------------------------------- 
B|-------------------------------------------------- 
G|-------------------------------------------------- 
D|--0--0--0--0--3--3--3--3--0--0--0--0--3--2--1--1-- 
A|--0--0--0--0--3--3--3--3--0--0--0--0--3--2--1--1-- 
D|--0--0--0--0--3--3--3--3--0--0--0--0--3--2--1--1-- 
 

(I shot in everything because I'm the one) 


Riff 2: 

 
E|------------------------------------ 
B|------------------------------------ 
G|------------------------------------ 
D|--0--0------5--5------0------5v----- 
A|--0--0------3--3------0------3------ 
D|--0--0----------------0------------- 
 


 
E|------------------------------------ 
B|------------------------------------ 
G|------------------------------------ 
D|--0--0------5--5------0------5v----- 
A|--0--0------3--3------0------3------ 
D|--0--0----------------0------------- 
 



 
E|------------------------------------ 
B|------------------------------------ 
G|------------------------------------ 
D|--0--0------5--5------0------5v----- 
A|--0--0------3--3------0------3------ 
D|--0--0----------------0------------- 
 



 
E|-------------------------------------- 
B|-------------------------------------- 
G|-------------------------------------- 
D|--------------------------7--5--3--3-- 
A|--------------------------7--5--3--3-- 
D|--7--7--7--7--7--7--7--7--7--5--3--2-- 
 



(v = vibrato) 



Chorus: 


  oh        is-he           hurt        - 

 
E|----------------------------------------- 
B|----------------------------------------- 
G|----------------------------------------- 
D|--------0-----------1-----------0-----5-- 
A|-----0-----------1-----------0--------3-- 
D|--0--------0--1--------1--0--------0----- 
 


  maybe i      have the      cure       - 

 
E|----------------------------------------- 
B|----------------------------------------- 
G|----------------------------------------- 
D|--------0-----------1-----------0-----5-- 
A|-----0-----------1-----------0--------3-- 
D|--0--------0--1--------1--0--------0----- 
 





 
E|----------------------------------------------------------- 
B|----------------------------------------------------------- 
G|----------------------------------------------------------- 
D|----8------7------5------3------3------0----5--5--5--5--2-- 
A|----8------7------5------3------3------0----3--3--3--3--0-- 
D|----8------7------5------3------2------0------------------- 
 
      |      |         |          |      |          | 

      the   only   cure-is-found       of my  for - ty - five 


 
                            in-the-barrel 
 


(repete os primeiros riffs) 
(segundo refrão se toca duas vezes) 


 
E|----------------------------------------------- 
B|----------------------------------------------- 
G|----------------------------------------------- 
D|--0--0--0--0--3--3--3--3--0--0--0--3--2--1--1-- 
A|--0--0--0--0--3--3--3--3--0--0--0--3--2--1--1-- 
D|--0--0--0--0--3--3--3--3--0--0--0--3--2--1--1-- 
 

 
E|------------------------------------------------------ 
B|------------------------------------------------------ 
G|------------------------------------------------------- 
D|--0--0--0--0--3--3--3--3--0--0--0--3--2--1--1-5-5-5-5- 
A|--0--0--0--0--3--3--3--3--0--0--0--3--2--1--1-3-3-3-3-- 
D|--0--0--0--0--3--3--3--3--0--0--0--3--2--1--1--------- 
		  

See also:

tabs Deep Purple - Burn tabs Deep Purple - No No No tabs Deep Purple - Smoke on the water(ver. 2) tabs Deep Purple - Time To Kill tabs Deep Purple - Smoke on The Water (ver.3) tabs Deep Purple - Fireball
e-chords

Other versions:

tabs Sonic Dash - Deadman Walk
auto scroll beats size up size down change color hide chords drawings
tab show chords e-chords YouTube Clip e-chords hide all tabs e-chords go to top tab

share