Sonata Arctica

Mary Lou (Acoustic version)

Sonata Arctica

tabs Beginner beginner

save to print version add songbook text version e-mail correct tuner
chordsukulelecavacokeyboardtabbassdrumsharmonicaflute Guitar Pro
close

there isn't a video lesson for this song

chords

Mary Lou (Acoustic version)

	  		 
Tune down 1/2 step!   
 
  Acoustic Guitar (Steel-stringed)                      Verse 1 
E---0-----0-----1-----1-----0-----0-----1-----1------||------1~--1---1---1------1---| 
B-----3-----3-----3-----3-----3-----3-----3-----3----||---3------3---3-3-3------1-1-| 
G-------2-----2-----2-----2-----2-----2-----2-----2--||---2------2---2-2-2--\2--2-2-| 
D---0------------------------------------------------||---0------0-----0----\3----3-| 
A----------------------------------------------------||---------------------\3----3-| 
E----------------------------------------------------||---------------------\1------| 
 
E-----1-----0---0---0---0------1---1-------0---0---/1---1---1---1-------1--------1--| 
B-/3--3-3---1---1---1---1--\3--3-3-3--/-1--1-1-1---/3---3---3-3-3-------1-1--/3--3-3| 
G-/3--3-3---0---0---0-0-0--\3--3-3-3--/-0--0-0-0---/2---2---2-2-2---\2--2-2--/3--3-3| 
D-/3--3-3---2---2-----2----\3----3----/-2----2-----/0---0-----0-----\3----3--/3----3| 
A-/1----1---3---3-----3----\1---------/-3----3----------------------\3----3--/1----1| 
E-------------------------------------------------------------------\1--------------| 
 
                                              Bridge 
E---0---0---0---0-------1---1-------0---0----------3---3------1---1------0---0---1--| 
B---1---1---1-1-1--\-3--3-3-3--/-1--1-1-1---|------3---3--/1--1-1-1---1--1-1-1---3--| 
G---0---0---0-0-0--\-3--3-3-3--/-0--0-0-0---|------3-3-3--/2--2-2-2---0--0-0-0---2--| 
D---2---2-----2----\-3----3----/-2----2-----|---5----5----/3----3-----2----2-----0--| 
A---3---3-----3----\-1---------/-3----------|---5----5----/0----------3-------------| 
E-----------------------------------------------3-----------------------------------| 
 
E--1---1------3---3------1---1------0---0---1---1---1------------0---0---/1---1---1-| 
B--3-3-3------3-3-3--/1--1-1-1---1--1-1-1---3---3-3-3---\1---1---1-1-1---/3---3---3-| 
G--2-2-2------3-3-3--/2--2-2-2---0--0-0-0---2---2-2-2---\0---0---0-0-0---/2---2---2-| 
D----0----\5----5----/3----3-----2----2-----0-----0-----\2---2-----2-----/0---0-----| 
A---------\5----5----/0----------3----------------------\3---3----------------------| 
E---------\3------------------------------------------------------------------------| 
 
                                       Verse 2 
E----\0-----0--------------------/0-----1-------1--------1---1------1---1---0---0---| 
B-3--\1--1--1--1--/3------3----------|----3-----3-3------1-1-1-/-3--3-3-3---1---1---| 
G-2--\0--0--0--0-----3------4--------|------2---2-2--\2--2-2-2-/-3--3-3-3---0---0---| 
D-0--\2--2--2--2-------3------5------|--0---------0--\3----3---/-3--3-3-3---2---2---| 
A--------3-----3--\1------2------/3--|---------------\3----3---/-1----1-----3---3---| 
E----------------------------------------------------\1-----------------------------| 
 
E-0---0------1---1-------0---0---/1--1--1--1---1------1---1------1---1---0---0---0--| 
B-1---1-\-3--3-3-3--/-1--1-1-1---/3--3--3--3-3-3------1-1-1-/-3--3-3-3---1---1---1-1| 
G-0-0-0-\-3--3-3-3--/-0--0-0-0---/2-----2--2-2-2--\2--2-2-2-/-3--3-3-3---0---0---0-0| 
D---2---\-3----3----/-2----2-----/0-----0----0----\3----3---/-3----3-----2---2-----2| 
A---3---\-1---------/-3----3----------------------\3--------/-1----------3---3-----3| 
E-------------------------------------------------\1--------------------------------| 
 
                               Bridge (2) 
E-0------1---1-------0---0----------3---3------1---1------0---0---1--1---1-------3--| 
B-1--\3--3-3-3--/-1--1-1-1---|------3---3--/1--1-1-1---1--1-1-1---3--3-3-3-------3-3| 
G-0--\3--3-3-3--/-0--0-0-0---|------3-3-3--/2--2-2-2---0--0-0-0---2--2-2-2-------3-3| 
D----\3----3----/-2----2-----|---5----5----/3----3-----2----2-----0----0----\-5----5| 
A----\1---------/-3----------|---5----5----/0----------3--------------------\-5----5| 
E--------------------------------3------------------------------------------\-3-----| 
 
E-3------1---1------0---0---1---1---1-------0-----0---0--/1--1--1--1---1---0---0---0| 
B-3-/-1--1-1-1---1--1-1-1---3---3-3-3--\-1--1--1--1-1-1--/3--3--3--3-3-3---1---1---1| 
G-3-/-2--2-2-2---0--0-0-0---2---2-2-2--\-0--0--0--0-0-0--/2-----2--2-2-2---0---0---0| 
D---/-3----3-----2----2-----0-----0----\-2-----2----2----/0-----0----0-----2---2----| 
A---/-0----------3---------------------\-3-----3---------------------------3---3----| 
E-----------------------------------------------------------------------------------| 
 
                                   Chorus 
E---0-\--0---0---0--/0--0---0------1---1---1---1-----------0---0----------1---1-----| 
B-1-1-\--0---0-0-0--/5--5---5---|--3---3---3-3-3---1---1---1-1-1----------1-1-1--/3-| 
G-0-0-\--7---7-7-7--/6--6-6-6---|--2---2---2-2-2---0---0---0-0-0--\2---2--2-2-2--/3-| 
D-2---\--7---7-7-7--/7--7-7-7---|--0---0-----0-----2---2-----2----\3---3----3----/3-| 
A-----\--7-----7----/4----4-----|------------------3---3----------\3---3---------/1-| 
E-----\--5--------------------------------------------------------\1---1------------| 
 
E-------------1---1---1---1-----------0---0----------1---1------1---1------0---0--/-| 
B-------------3---3---3-3-3---1---1---1-1-1--\3---3--3-3-3------1-1-1-/-1--1-1-1--/-| 
G-------------2---2---2-2-2---0---0---0-0-0--\3---3--3-3-3--\2--2-2-2-/-0--0-0-0--/-| 
D--3-/3~-2~---0---0-----0-----2---2-----2----\3---3----3----\3----3---/-2----2----/-| 
A--1--------------------------3---3----------\1---1---------\3--------/-3-----------| 
E-----------------------------------------------------------\1----------------------| 
 
E-1---1---1---1-----------0---0----------1---1-------------------/1---1---1---1-----| 
B-3---3---3-3-3---1---1---1-1-1----------1-1-1--/3--3------------/3---3---3-3-3---1-| 
G-2---2---2-2-2---0---0---0-0-0--\2---2--2-2-2--/3--3--3---------/2---2---2-2-2---0-| 
D-0---0---0-0-----2---2-----2----\3---3----3----/3--3--3-/3~-2~--/0---0-----0-----2-| 
A-----------------3---3----------\3---3---------/1-----1--------------------------3-| 
E--------------------------------\1---1---------------------------------------------| 
 
                                                      Riff 1 
E-----0---0----------1---1------1---1-------0---0-------1---1-----0---0---0---3--3--| 
B-1---1-1-1--\3---3--3-3-3------1-1-1--/1---1---1---|---3---3-3---3---3-3-3---3--3--| 
G-0---0-0-0--\3---3--3-3-3--\2--2-2-2--/0---0-0-0---|---2---2-2---2---2-2-2---2--2--| 
D-2-----2----\3---3----3----\3----3----/2---2-2-2---|---0-----0---0-----0-----0--0--| 
A-3----------\1---1---------\3---------/3-----3-----|-------------------------------| 
E---------------------------\1---------/0-----0-------------------------------------| 
 
E-3-\1---1---1------1-------1----1----1------1---1--/1---1-----0--1-0-1---3--3----3\| 
B-3--3---3-3-3---3--3-3--3--3-3--3--3-3---3--3-3-3--/3---3-3---3--3-3-3---3--3-3--3-| 
G-2--2---2-2-2---3--3-3--3--3-3--3--3-3---3--3-3-3--/2---2-2---2--2-2-2---2--2-2--2-| 
D----0-----0-----3--3-3--3--3-3--3--3-3---3----3----/0-----0---0----0-----0--0-0--0-| 
A----------------1-------1-------1--------1-----------------------------------------| 
E-----------------------------------------------------------------------------------| 
 
                                      end Riff 1 
E-1---1--1-------1-------1----1----1-----1---1--------------------------------------| 
B-3---3--3--\-3--3-3--3--3-3--3--3-3--3--3-3-3---|--Verse-3--|--------------|-------| 
G-2---2--2--\-3--3-3--3--3-3--3--3-3--3--3-3-3---|---with----|--Bridge-(2)--|--Choru| 
D-0---0--0--\-3--3-3--3--3-3--3--3-3--3----3-----|--Verse-1--|--------------|-------| 
A-----------\-1-------1-------1-------1----------|---riff----|--------------|-------| 
E-----------------------------1-----------------------------------------------------| 
 
                 Guitar Solo 
E-----------------------13-12-------------------------------------------------------| 
B---|----------|-----15-------15-13-------------------------------------------------| 
Gs--|--Riff-1--|--------------------12-12/14-14~------7-9-10-9--h10p9p7-5~----------| 
D---|----------|--12------------------------------\10----------------------\7~--\--/| 
A---|----------|--------------------------------------------------------------------| 
E-----------------------------------------------------------------------------------| 
 
E-----------------------------3-----------------------------------------------------| 
B----6------5-----3~--3--5-6----6~-5~-3~-5~----3~---------------6-8~--6/8-10--10/11~| 
G-------------------------------------------5~---------/7~--7-9---------------------| 
D-7-----7\5---5\3---------------------------------5~--------------------------------| 
A-----------------------------------------------------------------------------------| 
E-----------------------------------------------------------------------------------| 
 
E-----------------------------------------------------------------------------------| 
B-10~-8~-10~-----8~-------------------------8~--------------------------------------| 
G------------10~----9~-10~-7~--7/9-9~--9-10-----10-9-7----7-9-----------6-----------| 
D------------------------------------------------------10-----10~---7-8---8-7-5-7-8-| 
A-----------------------------------------------------------------------------------| 
E-----------------------------------------------------------------------------------| 
 
E-----------------------------------------------------------------------------------| 
B----------------8-10-11-10-8------------------------------------------|------------| 
G-6-7-9-6-7-9/10--------------10-9-7\6---------------------------------|---Chorus---| 
D--------------------------------------8-7-5-8-7-5---------------------|------------| 
A--------------------------------------------------8-7-5\4-5-7-5~~-\---|------------| 
E--------------------------------------------------------------------\--------------| 
 
  Outro Chorus 
E--1---1---1---1-----------0---0----------1---1---------------/-1---1---1---1-------| 
B--3---3---3-3-3---1---1---1-1-1----------1-1-1--/3-----------/-3---3---3-3-3--\-1--| 
G--2---2---2-2-2---0---0---0-0-0--\2---2--2-2-2--/3-----------/-2---2---2-2-2--\-0--| 
D--0---0-----0-----2---2-----2----\3---3----3----/3--3-/3~-2~-/-0---0-----0----\-2--| 
A------------------3---3----------\3---3---------/1--1-------------------------\-3--| 
E---------------------------------\1---1--------------------------------------------| 
 
E-----0---0----------1---1------1---1------0---0--/-1---1---1---1-----------0---0---| 
B-1---1-1-1--\3---3--3-3-3------1-1-1-/-1--1-1-1--/-3---3---3-3-3---1---1---1-1-1---| 
G-0---0-0-0--\3---3--3-3-3--\2--2-2-2-/-0--0-0-0--/-2---2---2-2-2---0---0---0-0-0--\| 
D-2-----2----\3---3----3----\3----3---/-2----2----/-0---0---0-0-----2---2-----2----\| 
A-3----------\1---1---------\3--------/-3---------------------------3---3----------\| 
E---------------------------\1-----------------------------------------------------\| 
 
E--------1---1-------------------/1---1---1---1-----------0---0-----------1---1--1)~| 
B--------1-1-1--/3--3------------/3---3---3-3-3--\1---1---1-1-1--\3---3---3-3-3--1(~| 
G\2---2--2-2-2--/3--3--3---------/2---2---2-2-2--\0---0---0-0-0--\3---3---3-3-3--2)~| 
D\3---3----3----/3--3--3-/3~-2~--/0---0-----0----\2---2-----2----\3---3-----3----3(~| 
A\3---3---------/1-----1-------------------------\3---3----------\1---1----------3)~| 
E\1---1--------------------------------------------------------------------------1(~| 
 
 
E~--0)~~--------0--------------------|| 
B~--1(~~------------6----------------|| 
G~--0)~~----------------7------------|| end 
D~--2(~~--/-0~--------------0~~--\---|| 
A~--3)~~-----------------------------|| 
E~--0(~~-----------------------------|| 
 
 
_______________________________________________________ 
Contribuição: Pedro Merlussi([email protected]) 

		  

See also:

tabs Sonata Arctica - Paid In Full tabs Sonata Arctica - Fade To Black tabs Sonata Arctica - Larger Than Life tabs Behexen - My Soul For His Glory
e-chords

Other versions:

tabs Sonata Arctica - Mary Lou tabs Sonata Arctica - Mary Lou (Acoustic version)
auto scroll beats size up size down change color hide chords drawings
tab show chords e-chords YouTube Clip e-chords hide all tabs e-chords go to top tab

share