Something For Kate

Subject To Change

Something For Kate

tabs

save to print version add songbook text version e-mail correct tuner
chordsukulelecavacokeyboardtabbassdrumsharmonicaflute Guitar Pro
close

there isn't a video lesson for this song

chords

Subject To Change

	  		Transcribed By: Benjamin 
Contact Email: [email protected] 
 
Tuning: normale 
 
                         all these are downstrokes \/ 
e |--x--x--x--x-|---------------------------------------------------| 
b |--x--x--x--x-|---------------------------------------------------| 
g |--x--x--x--x-|-12-12-12-12-12-12-12-12-12-12-12-12-12-12-12-12---| 
d |--x--x--x--x-|-14-14-14-14-14-14-14-14-14-14-14-14-14-14-14-14---| 
a |--x--x--x--x-|-0--0--0--0--0--0--0--0--0--0--0--0--0--0--0--0----| 
e |--x--x--x--x-|---------------------------------------------------| 
     1  2  3  4   1  -  2  -  3  -  4  -  1  -  2  -  3  -  4  - 
 
VERSE: 
e |-----------------------------------------------------------------| 
b |----------------------------------12-12-12-12--------------------| 
g |-----------15-15-15-15------------12-12-12-12--------------------| 
d |--12-14-12-13-13-13-13---12-14-12-12-12-12-12--------------------| 
a |--12-12-12-13-13-13-13---12-12-12--------------------------------| 
e |-----------------------------------------------------------------|  
 
e |-----------------------------------------------------------------| 
b |-----------------------------------------------------------------| 
g |-----------15-15-15-15-------------------------------------------| 
d |--12-14-12-13-13-13-13-------------------------------------------| 
a |--12-12-12-13-13-13-13---15-15-15---12-12-12---------------------| 
e |-------------------------13-13-13---10-10-10---------------------|  
 
BIT BETWEEN VERSE AND SOLO/PRE-CHORUS:  ("kept secuuuure...") 
e |-----------------------------------------------------------------| 
b |-----------------------------------------------------------------| 
g |-----------------------------------------------------------------| 
d |-3-3-3-3-3-3-3-3-3-3---------------------------------------------| 
a |-3-3-3-3-3-3-3-3-3-3---------------------------------------------| 
e |-1-1-1-1-1-1-1-1-1-1-etc.----------------------------------------|                     
 
SOLO/PRE-CHORUS: 
e |-----------------------------------------------------------------| 
b |-------------12-12-----------------------------------------------| 
g |-------12----------12-12-------12----14-14-----------------------| 
d |----14----14----------------14----14-------14-14-----------------| 
a |-12----------------------12--------------------------------------| 
e |-----------------------------------------------------------------| 
 
 
e |-----------------------------------------------------------------| 
b |-------------12-12--------------14//-15-14-----------------------| 
g |-------12----------12-12-14////------------14--------------------| 
d |----14----14-----------------------------------------------------| 
a |-12--------------------------------------------------------------| 
e |-----------------------------------------------------------------|  
 
CHORUS:  (strumming not shown, but chords are in line with lyrics) 
e |-------------|-------------------------------------------------| 
b |-------------|-7----------------7------------------------------| 
g |-----------7-|-7----6-----------7--6---------------------------| 
d |-5----3----7-|-7----7-----------7--7---------------------------| 
a |-5----3----5-|-5----7-----------5--7---------------------------| 
e |-3----1------|------5--------------5---------------------------|  
                 "Everything i say is nothing...." 
 
after the chorus you do the intro bit again then go back to verse. 
unless it's the end of the song. 
i have wanted to play this song on my guitar for ages but i could 
never be bothered working it out.  i did it yesterday, didn't take 
long.  it's lots of fun to play, esp with lotsa pretty distortion. 
enjoy!  ben. 
ps if anyone has any idea how i can get to hear sfk playing 
"gouge away", please write. 
 
 

		  

See also:

tabs John Butler Trio - Attitude tabs The Dissociatives - Horror With Eyeballs tabs Wolfmother - Woman tabs Pete Murray - Tonic tabs Virgin Black - Our Wings Are Burning tabs Russell Morris - On The Wings Of An Eagle
e-chords

Other versions:

tabs Something For Kate - Subject To Change tabs Sum 41 - Subject to Change
auto scroll beats size up size down change color hide chords drawings
tab show chords e-chords YouTube Clip e-chords hide all tabs e-chords go to top tab

share