Something For Kate

Captain (Million miles an hour)

Something For Kate

tabs Beginner beginner

save to print version add songbook text version e-mail correct tuner
chordsukulelecavacokeyboardtabbassdrumsharmonicaflute Guitar Pro
close

there isn't a video lesson for this song

chords

Captain (Million miles an hour)

	  		By something for kate 
tabbed by stephen dubsky ([email protected]) & Andrew Loch 
([email protected]) 
 
chords only written once, riffs written in order with no labels 
 
Intro 
 
 
E-----|------|-----|------|-|------------------------------------------- 
B-----|---9--|-----|--10--|-|-------------------------------------------- 
G-----|---9--|-----|--9---|-|------------------12harm-------------------- 
D--9--|---9--|--9--|--9---|-|--7harm-----12harm----------------------- 
A--7--|------|--7--|------|-|------------------------------------------- 
E--0--|------|--0--|------|-|---------------------------------------------- 
 
 
          verse 
E---||------------------------------------------------|----------------- 
B---||------------------------------------------------|----------------- 
G---||*-----------------------------------------------|----------------- 
D---||*---2---2---2---2---2---2---2---4---4---4---4---|----------------- 
A---||----2---2---2---4---4---4---4---6---6---6---6---|----------------- 
E---||----0---0---0---2---2---2---2---4---4---4---4---|----------------- 
 
 
                                                      chorus     8x 
E------------------------------------------------||---||----0----||----- 
B------------------------------------------------||---||----0----||----- 
G-----------------------------------------------*||---||*---6---*||----- 
D---2---2---2---2---2---2---2---6---6---6---6---*||---||*---9---*||----- 
A---2---2---2---4---4---4---4---7---7---7---7----||---||----9----||----- 
E---0---0---0---2---2---2---2---5---5---5---5----||---||----7----||----- 
 
          8x        8x 
E---0-----||--------||------------------------------------||------------ 
B---0-----||--------||------------------------------------||------------ 
G---9----*||-------*||-----------------------------------*||------------ 
D---11---*||---6---*||---2---2---2---2---2---2---2---2---*||------------ 
A---11----||---7----||---2---2---2---2---4---4---4---4----||------------ 
E---9-----||---5----||---0---0---0---0---2---2---2---2----||------------ 
 
After 1st chorus bass plays verse riff. 
 
Solo 
E---||----0---0---0---0---0---0-----------------0---||----- 
B---||----0---0---0---0---0---0-----------------0---||----- 
G---||*---8---6---4---6---4---8---13b--14---13--6---||------ 
D---||*---9---7---7---7---7---9---x----x----x---7---||------- 
A---||----9---7---7---7---7---9---11b--12---11--7---||----- 
E---||----7---5---5---5---5---7-----------------5---||------- 
 
E---||-------0---0---0---0---0---------------------0---||----- 
B---||-------0---0---0---0---0---------------------0---||----- 
G---||*------6---4---6---4---8---13---11---9---8---6---||------ 
D---||*------7---7---7---7---9---x----x----x---x---7---||------- 
A---||-------7---7---7---7---9---11---9----7---6---7---||----- 
E---||-------5---5---5---5---7---------------------5---||------- 
 
E--0---0---0---0---0--------------------------------0----||---------- 
B--0---0---0---0---0--------------------------------0----||---------------- 
G--6---4---6---4---8----13---14---14/16---14---13---6---*||------------------- 
D--7---7---7---7---9----x----x----x--x----x----x----7---*||---------------- 
A--7---7---7---7---9----11---12---12/14---12---11---7----||------------- 
E--5---5---5---5---7--------------------------------5----||------------- 
 
E---||-------0---0---0---0------------||----- 
B---||-------0---0---0---0------------||----- 
G---||*------6---4---6---4------13b---||------ 
D---||*------7---7---7---7------x-----||------- 
A---||-------7---7---7---7------11b---||----- 
E---||-------5---5---5---5------------||------- 
 
E---||------------------------------------------------|----------------- 
B---||------------------------------------------------|----------------- 
G---||*---4---4---4---4---4---4---4---2---2---2---2---|----------------- 
D---||*---4---4---4---4---4---4---4---2---2---2---2---|----------------- 
A---||----2---2---0---2---2---2---2---0---0---0---0---|----------------- 
E---||----------------2---2---2---2-------------------|----------------- 
 
E----------------------------------------------------------------||----- 
B----------------------------------------------------------------||----- 
G---4---4---4---6---6---6---6---9---8---9---8---9---8---9---8---*||----- 
D---4---4---4---6---6---6---6---9---9---9---9---9---9---9---9---*||----- 
A---2---2---2---4---4---4---4---7---7---7---7---7---7---7---7----||----- 
E-------------------------------0---0---0---0---0---0---0---0----||----- 
 
E---0---|---0---|-------|------------||--------------------------------- 
B---0---|---0---|-------|------------||--------------------------------- 
G---4---|---6---|-------|-----------*||--------------------------------- 
D---4---|---6---|---6---|---2---4---*||--------------------------------- 
A---2---|---4---|---7---|---2---4----||--------------------------------- 
E-------|-------|---5---|---0---2----||--------------------------------- 
 
E---0---0-------0---0-------0----||------------------------------------- 
B---0-------0---0-------0---0----||------------------------------------- 
G---8-----------6-----------1---*||------------------------------------- 
D---9-----------7-----------2---*||------------------------------------- 
A---9-----------7-----------2----||------------------------------------- 
E---7-----------5-----------0----||------------------------------------- 
 
 

		  

See also:

tabs Pete Murray - beautiful tabs Powderfinger - These Days tabs John Butler Trio - Attitude tabs John Butler Trio - Peaches & Cream tabs Russell Morris - On The Wings Of An Eagle tabs Pete Murray - Bail Me Out
e-chords

Other versions:

tabs Idlewild - Captain tabs Kasey Chambers - Captain tabs Something For Kate - Captain (Million miles an hour) tabs A Future Corrupt - Captain America tabs Fatso Jetson - Captain Evil tabs The Aquabats - Captain Hampton And The Midget Pirates
auto scroll beats size up size down change color hide chords drawings
tab show chords e-chords YouTube Clip e-chords hide all tabs e-chords go to top tab

share