Somerset

Inside

Somerset

tabs

by  SOMMERSET

save to print version add songbook text version e-mail correct tuner
chordsukulelecavacokeyboardtabbassdrumsharmonicaflute Guitar Pro
close

there isn't a video lesson for this song

chords

Inside

	  		Sommerset - Inside 
Played with two guitars. Song is pretty complicated, but once you get the hang of it,
 it's great to play. 
 
INTRO: 
 
 
Guitar One: 
 
  B5A5B5A5B5A5B5A5 B5A5B5A5B5A5B5A5  Dmajor 
||----------------|----------------|----------------|----------------| 
||----------------|----------------|----------------|----------------| 
||----------------|----------------|----1111--1111--|----1111--------| 
||----------------|----------------|----------------|----------------| 
||9-7-9-7-9-7-9-7-|9-7-9-7-9-7-9-7-|0---9-9---9-9-0-|0---9-9---9-9-0-| 
||9-7-9-7-9-7-9-7-|9-7-9-7-9-7-9-7-|0-------------0-|0-------------0-| 
 
 B5A5B5A5B5A5B5A5 B5A5B5A5B5A5B5A5  Dmajor           D5 
|----------------|----------------|----------------|----------------|| 
|----------------|----------------|----------------|----------------|| 
|----------------|----------------|----1111--1111--|----------------|| 
|----------------|----------------|----------------|----------------|| 
|9-7-9-7-9-7-9-7-|9-7-9-7-9-7-9-7-|0---9-9---9-9-0-|0---0---0---0---|| 
|9-7-9-7-9-7-9-7-|9-7-9-7-9-7-9-7-|0-------------0-|0---0---0---0---|| 
 
 
Guitar Two: 
 
Enter on Bar 7: 
 
 D5 
|----------------|----------------|| 
|----------------|----------------|| 
|----------------|----------------|| 
|----------------|----------------|| 
|0*--------------|0---0---0---0---|| 
|0*--------------|0---0---0---0---|| 
 
* volume swell 
 
 
Guitar One and Two: 
 
 B5A5B5A5B5A5B5A5 B5A5B5A5B5A5B5A5  Dmajor 
||----------------|----------------|----------------|----------------| 
||----------------|----------------|----------------|----------------| 
||----------------|----------------|----1111--1111--|----1111--------| 
||----------------|----------------|----------------|----------------| 
||9-7-9-7-9-7-9-7-|9-7-9-7-9-7-9-7-|0---9-9---9-9-0-|0---9-9---9-9-0-| 
||9-7-9-7-9-7-9-7-|9-7-9-7-9-7-9-7-|0-------------0-|0-------------0-| 
 
 B5A5B5A5B5A5B5A5 B5A5B5A5B5A5B5A5  Dmajor                       A5 
|----------------|----------------|----------------|----------------|| 
|----------------|----------------|----------------|----------------|| 
|----------------|----------------|----1111--1111--|----1111--------|| 
|----------------|----------------|----------------|----------------|| 
|9-7-9-7-9-7-9-7-|9-7-9-7-9-7-9-7-|0---9-9---9-9-0-|0---9-9---0-7---|| 
|9-7-9-7-9-7-9-7-|9-7-9-7-9-7-9-7-|0-------------0-|0---------0-7---|| 
 
  
  
   
   
  
VERSE ONE AND TWO: 
 
 
Guitar One and Two: 
 
  B5                                G5                         A5 
||----------------|----------------|----------------|----------------| 
||----------------|----------------|----------------|----------------| 
||----------------|----------------|7---7---7---7---|7---7---7-9-----| 
||9---9---9---9---|9---9---9---9---|5---5---5---5---|5---5---5-7-----| 
||9---9---9---9---|9---9---9---9---|5---5---5---5---|5---5---5-7-----| 
||9---9---9---9---|9---9---9---9---|5---5---5---5---|5---5---5-7-----| 
 
 B5                                F#5              G5 
|----------------|----------------|----------------|----------------| 
|----------------|----------------|----------------|----------------| 
|----------------|----------------|6*--6---6---6-6-|7---7---7-7-7-7-| 
|9---9---9---9---|9---9---9---9---|4*--4---4---4-4-|5---5---5-5-5-5-| 
|9---9---9---9---|9---9---9---9---|4*--4---4---4-4-|5---5---5-5-5-5-| 
|9---9---9---9---|9---9---9---9---|4*--4---4---4-4-|5---5---5-5-5-5-| 
 
* Guitar 2 plays Fill 1 in Verse 2 
 
 
 B5                                G5                         A5 
|----------------|----------------|----------------|----------------| 
|----------------|----------------|----------------|----------------| 
|----------------|----------------|7---7---7---7---|7---7---7-9-----| 
|9---9---9---9---|9---9---9---9---|5---5---5---5---|5---5---5-7-----| 
|9---9---9---9---|9---9---9---9---|5---5---5---5---|5---5---5-7-----| 
|9---9---9---9---|9---9---9---9---|5---5---5---5---|5---5---5-7-----| 
 
 
Guitar One: 
 
 B5                                F#5              G5          A5                        D5 
|----------------|----------------|----------------|------------------------||-- 
|----------------|----------------|----------------|------------------------||-- 
|----------------|----------------|6-6-6-6---6-6-6-|7-7-7-7-7-7-9-9-9-9-9-9-||-- 
|9---9---9---9---|9---9---9---9---|4-4-4-4---4-4-4-|5-5-5-5-5-5-7-7-7-7-7-7-||-- 
|9---9---9---9---|9---9---9---9---|4-4-4-4---4-4-4-|5-5-5-5-5-5-7-7-7-7-7-7-||0* 
|9---9---9---9---|9---9---9---9---|4-4-4-4---4-4-4-|5-5-5-5-5-5-7-7-7-7-7-7-||0* 
 
* end of Verse Two only 
 
 
Guitar Two: 
 
 B5                                F#5              G5          A5 
|----------------|----------------|----------------|------------------------|| 
|----------------|----------------|----------------|------------------------|| 
|----------------|----------------|11111111--111111|121212121212141414141414|| 
|9---9---9---9---|9---9---9---9---|----------------|------------------------|| 
|9---9---9---9---|9---9---9---9---|9-9-9-9---9-9-9-|101010101010121212121212|| 
|9---9---9---9---|9---9---9---9---|----------------|------------------------|| 
 
At the end of Verse Two, Guitar Two plays Fill 2 
 
 
Fill 1: 
     
   (F#m7) 
||----------------|----------------|| 
||----------------|----------------|| 
||9---9---9---9-9-|9---9---9-9-119-|| 
||----------------|----------------|| 
||9---9---9---9-9-|9---9---9-9-9-9-|| 
||----------------|----------------|| 
 
Fill 2: 
     
  Dmajor 
||----------------|----------------|| 
||----------------|----------------|| 
||----1111--1111--|----1111--1111--|| 
||----------------|----------------|| 
||0---9-9---9-9-0-|0---9-9---9-9-0-|| 
||0-------------0-|0-------------0-|| 
  
  
   
   
  
Chorus ONE, TWO AND THREE: 
 
 
Guitar One and Two: 
 
   B5A5B5A5B5A5B5A5 B5A5B5A5B5A5B5A5  Dmajor                       A5D5 
||:----------------|----------------|----------------|----------------| 
||:----------------|----------------|----------------|----------------| 
||:----------------|----------------|----1111--1111--|----1111--------| 
||:----------------|----------------|----------------|----------------| 
||:9-7-9-7-9-7-9-7-|9-7-9-7-9-7-9-7-|0---9-9---9-9-0-|0---9-9---0-7-0-| 
||:9-7-9-7-9-7-9-7-|9-7-9-7-9-7-9-7-|0-------------0-|0---------0-7-0-| 
 
 
Guitar One: 
 
 B5A5B5A5B5A5B5A5 B5A5B5A5B5A5B5A5  Dmajor                       A5D5 
|----------------|----------------|----------------|-----------------:|| 
|----------------|----------------|----------------|-----------------:|| 
|----------------|----------------|----1111--1111--|----1111---------:|| 
|----------------|----------------|----------------|-----------------:|| 
|9-7-9-7-9-7-9-7-|9-7-9-7-9-7-9-7-|0*--9-9---9-9-0-|0---9-9---0-7-0**:|| 
|9-7-9-7-9-7-9-7-|9-7-9-7-9-7-9-7-|0*------------0-|0---------0-7-0**:|| 
 
 
Guitar Two: 
 
 B5A5B5A5B5A5B5A5 B5A5B5A5B5A5B5A5  B5A5B5A5B5A5B5A5  B5A5B5A5C5 
|----------------|----------------|----------------|-----------------:|| 
|----------------|----------------|----------------|-----------------:|| 
|----------------|----------------|----7-7---7-7---|----7-7----------:|| 
|----------------|----------------|----------------|-----------------:|| 
|9-7-9-7-9-7-9-7-|9-7-9-7-9-7-9-7-|0*--5-5---5-5-0-|0---5-5---0-7-0**:|| 
|9-7-9-7-9-7-9-7-|9-7-9-7-9-7-9-7-|0*------------0-|0---------0-7-0**:|| 
 
* On 2nd time thru Chorus Three go to Outro 
 
** Don't play on second time thru Chorus One 
 
Both Guitars repeat riff  -  1x in Chorus One, 2x in Chorus Two and Chorus Three 
  
  
   
   
  
BRIDGE - PART ONE: 
 
 
Guitar One and Two: 
 
  Gmaj9            A5add9           B5add9           A5add9 
||----5---5-5-5-5-|----7---7-7-7-7-|----9---9-9-9-9-|----7---7-7-7-7-| 
||----7---7-7-7-7-|----10--10101010|----12--12121212|----10--10101010| 
||----7---7-7-7-7-|----9---9-9-9-9-|----11--11111111|----9---9-9-9-9-| 
||5---5---5-5-5-5-|7---7---7-7-7-7-|9---9---9-9-9-9-|7---7---7-7-7-7-| 
||5---5---5-5-5-5-|7---7---7-7-7-7-|9---9---9-9-9-9-|7---7---7-7-7-7-| 
||5---5---5-5-5-5-|7---7---7-7-7-7-|9---9---9-9-9-9-|7---7---7-7-7-7-| 
 
 
Guitar One: 
 
 Gmaj9            A5add9           B5                           F#5 
|----5---5-5-5-5-|----7---7-7-7-7-|----------------|----------------| 
|----7---7-7-7-7-|----10--10101010|----------------|----------------| 
|----7---7-7-7-7-|----9---9-9-9-9-|11--11--11--11--|11--11--11--6---| 
|5---5---5-5-5-5-|7---7---7-7-7-7-|----------------|--------9---4---| 
|5---5---5-5-5-5-|7---7---7-7-7-7-|9---9---9---9---|9---9---9---4---| 
|5---5---5-5-5-5-|7---7---7-7-7-7-|--0---0---0---0-|--0---0-9---4---| 
 
 
Guitar Two: 
 
 Gmaj9            A5add9           B5                           F#5 
|----5---5-5-5-5-|----7---7-7-7-7-|----------------|----------------| 
|----7---7-7-7-7-|----10--10101010|----------------|----------------| 
|----7---7-7-7-7-|----9---9-9-9-9-|----------------|----------------| 
|----5---5-5-5-5-|----7---7-7-7-7-|----------------|----------------| 
|5---5---5-5-5-5-|7---7---7-7-7-7-|----------------|--------9---4---| 
|5---5---5-5-5-5-|7---7---7-7-7-7-|9-0-9-0-9-0-9-0-|9-0-9-0-9---4---| 
 
 
Guitar One and Two: 
 
 Gmaj9            A5add9           B5add9           A5add9 
|----5---5-5-5-5-|----7---7-7-7-7-|----9---9-9-9-9-|----7---7-7-7-7-| 
|----7---7-7-7-7-|----10--10101010|----12--12121212|----10--10101010| 
|----7---7-7-7-7-|----9---9-9-9-9-|----11--11111111|----9---9-9-9-9-| 
|5---5---5-5-5-5-|7---7---7-7-7-7-|9---9---9-9-9-9-|7---7---7-7-7-7-| 
|5---5---5-5-5-5-|7---7---7-7-7-7-|9---9---9-9-9-9-|7---7---7-7-7-7-| 
|5---5---5-5-5-5-|7---7---7-7-7-7-|9---9---9-9-9-9-|7---7---7-7-7-7-| 
 
 Gmaj9            A5          F#/A# 
|----5---5-5-5-5-|------------------------|| 
|----7---7-7-7-7-|------------------------|| 
|----7---7-7-7-7-|------------------------|| 
|5---5---5-5-5-5-|------------------------|| 
|5---5---5-5-5-5-|7-7-7-7-7-7-9-9-9-9-9-9-|| 
|5---5---5-5-5-5-|7-7-7-7-7-7-8-8-8-8-8-8-|| 
  
  
   
   
  
BRIDGE PART TWO: 
 
 
Guitar One: 
    
  B5A5B5A5B5A5B5A5 B5A5B5A5B5A5B5A5  B5A5B5A5B5A5B5A5  B5A5B5A5C5 
||----------------|----------------|----------------|----------------|| 
||----------------|----------------|----------------|----------------|| 
||----------------|----------------|----------------|----------------|| 
||----------------|----------------|----------------|----------------|| 
||9-7-9-7-9-7-9-7-|9-7-9-7-9-7-9-7-|9-7-9-7-9-7-9-7-|9-7-9-7-8---8---|| 
||9-7-9-7-9-7-9-7-|9-7-9-7-9-7-9-7-|9-7-9-7-9-7-9-7-|9-7-9-7-8---8---|| 
 
 
Guitar  Two: 
 
  B5                                                         C5 
||----------------|----------------|----------------|----------------|| 
||----------------|----------------|----------------|----------------|| 
||----------------|----------------|----------------|----------------|| 
||----------------|----------------|----------------|----------------|| 
||9-sl.-----------|9-sl.-----------|9-sl.------9-sl.|--------8---8---|| 
||9-sl.-----------|9-sl.-----------|9-sl.------9-sl.|--------8---8---|| 
 
 
Guitar One and Two: 
 
  N.C. 
||----------------|----------------|----------------|------------------| 
||----------------|----------------|----------------|------------------| 
||----------------|----------------|----------------|------------------| 
||----------------|----------------|----------------|------------------| 
||----------------|----------------|----------------|------------------| 
||9-7-9-7-9-7-9-7-|9-7-9-7-9-7-9-7-|9-7-9-7-9-7-9-7-|9-9-7-9-7-9-7-9-7-| 
 
 
Guitar One: 
 
                                   B5                       C5          F#major 
|----------------|----------------|------------------------|------------------------|| 
|----------------|----------------|------------------------|------------------------|| 
|----------------|----------------|------------------------|------------------------|| 
|----------------|----------------|------------------------|------------------------|| 
|----------------|----------------|------------------------|------------------------|| 
|9-7-9-7-9-7-9-7-|9-7-9-7-9-7-9-7-|9-9-9-9-9-9-9-9-9-9-9-9-|1010101010104-4-4-4-4-4-|| 
 
 
Guitar Two: 
                                   B5                       C5          F#major 
|----------------|----------------|------------------------|------------------------|| 
|----------------|----------------|------------------------|------------------------|| 
|----------------|----------------|111111111111111111111111|121212121212151515151515|| 
|----------------|----------------|------------------------|------------------------|| 
|9-7-9-7-9-7-9-7-|9-7-9-7-9-7-9-7-|9-9-9-9-9-9-9-9-9-9-9-9-|101010101010131313131313|| 
|----------------|----------------|------------------------|------------------------|| 
  
  
   
   
  
OUTRO: 
 
 
Guitar One and Two: 
 
    Dmajor 
||----------------|----------------|----------------|----------------| 
||----------------|----------------|----------------|----------------| 
||11--11--11--11--|11--11--11--11--|11--11--11--11--|11--11--11--11--| 
||----------------|----------------|----------------|----------------| 
||9---9---9---9---|9---9---9---9---|9---9---9---9---|9---9---9---9---| 
||0---0---0---0---|0---0---0---0---|0---0---0---0---|0---0---0---0---| 
 
                                   B5add9 
|----------------|----------------|----------------|| 
|----------------|10--10--10--10--|----------------|| 
|11--11--11--11--|11--11--11--11--|----------------|| 
|----------------|----------------|11sl.-----------|| 
|9---9---9---9---|9---9---9---9---|9-sl.-----------|| 
|0---0---0---0---|0---0---0---0---|9-sl.-----------|| 
  
 

		  

See also:

tabs Smashing Pumpkins - Today tabs Bon Jovi - It's My Life tabs Van Halen - Pretty Woman tabs Guns N' Roses - November Rain (Ver. Acoustic) tabs The Offspring - Pretty Fly (For a White Guy) tabs ZZ Top - Bad to the bone
e-chords

Other versions:

tabs Somerset - Inside tabs John Frusciante - Inside A Break tabs Explosions In The Sky - Inside It All Feels The Same tabs Pearl Jam - Inside Job Tab tabs The Special Goodness - Inside My Heart tabs Nada Surf - Inside Of Love (acoustic)
auto scroll beats size up size down change color hide chords drawings
tab show chords e-chords YouTube Clip e-chords hide all tabs e-chords go to top tab

share