Sodom

Axis Of Evil

Sodom

tabs nolevel nolevel

by  DEIVCAVALCANTI

save to print version add songbook text version e-mail correct tuner
chordsukulelecavacokeyboardtabbassdrumsharmonicaflute Guitar Pro
close

there isn't a video lesson for this song

chords

Axis Of Evil

	  		  
 Intro 
D|------------------| 
A|------------------| 
F|------------------| 
C|------------------| 
G|-8--8-8-8-8--7--5-| 
D|-6--6-6-6-6--5--3-| 

D|---------------------------------------| 
A|---------------------------------------| 
F|---------------------------------------| 
C|------4----3---------------------------| x6 
G|-2----2----1----2---4---5----5---4---3-| 
D|-0--------------0---2---3----3---2---1-| 

D|-------------------------------------------------------------------------------| 
A|-------------------------------------------------------------------------------| 
F|-------------------------------------------------------------------------------| 
C|-----------5---------6---------5-------------------5---------6-----------------| x2 
G|-2---------3---------4---------3---------2---------3---------4---------8--7--5-| 
D|-0--0-0-0-----0-0-0-----0-0-0-----0-0-0--0--0-0-0-----0-0-0-----0-0-0--6--5--3-| 
      . . .     . . .     . . .     . . .     . . .     . . .     . . . 

D|---------------------------------------------------------------------------------| 
A|---------------------------------------------------------------------------------| 
F|---------------------------------------------------------------------------------| 
C|---------------------------------------------------------------------------------| 
G|-2----6----5----4-----4--5-----2----6----5----4-----4--5-----2--2----6----5----4-| 
D|-0----4----3----2--0--2--3--0--0----4----3----2--0--2--3--0--0--0----4----3----2-| 
                     .        .                    .        .  

D|------------------------------------| 
A|------------------------------------| 
F|------------------------------------| 
C|------------------------------------| x8 
G|----7-----5-----7-------------------| 
D|-0-----0-----0-----0--6--0--5--0--3-| 
   .     .     .     .  .  .  .  .  . 

D|---------------------| 
A|---------------------| 
F|---------------------| 
C|---------------------| 
G|-8--8-8-8-8--8--7--5-| 
D|-6--6-6-6-6--6--5--3-| 
               .  .  . 
  
 Verse 
D|---------------------------------------------------------------------------------| 
A|---------------------------------------------------------------------------------| 
F|---------------------------------------------------------------------------------| 
C|---------------------------------------------------------------------------------| 
G|-2----6----5----4-----4--5-----2----6----5----4-----4--5-----2--2----6----5----4-| 
D|-0----4----3----2--0--2--3--0--0----4----3----2--0--2--3--0--0--0----4----3----2-| 
                     .        .                    .        .  
  
 Chorus 
D|-------------------------------------------------------------------------------| 
A|-------------------------------------------------------------------------------| 
F|-------------------------------------------------------------------------------| 
C|-----------5---------6---------5-------------------5---------6-----------------| x2 
G|-2---------3---------4---------3---------2---------3---------4---------8--7--5-| 
D|-0--0-0-0-----0-0-0-----0-0-0-----0-0-0--0--0-0-0-----0-0-0-----0-0-0--6--5--3-| 
      . . .     . . .     . . .     . . .     . . .     . . .     . . . 

D|-----------------------------------------------------------------| 
A|-----------------------------------------------------------------| 
F|-----------------------------------------------------------------| 
C|-----------------------------------------------------------------| 
G|----7h8p7----------5-----5--6-------7h8p7----------5-----5--7--8-| 
D|-0---------6--5----3--0--3--4----0---------6--5----3--0--3--5--6-| 
                        .          .                    .  .  .  . 

D|----0--------0--------0--------0-----| 
A|-------0--------0--------0--------0--| 
F|-------------------------------------| 
C|-2--------5--------6--------5--------| x6 
G|-2--------3--------4--------3--------| 
D|-0--------0--------0--------0--------| 

D|------------------------------------------------------------------------| 
A|------------------------------------------------------------------------| 
F|------------------------------------------------------------------------| 
C|------------------------------------------------------------------------| x2 
G|----7--5--------------7--5--------------7--5-----------7--5--8--7--5----| 
D|-0--------5--6--5--0--------5--6--5--0--------5--6--5-----------------6-| 

 Outro 
D|--------------------------------| 
A|--------------------------------| 
F|--------------------------------| 
C|--------------------------------| 
G|-8--7--5---8--7--5---8--7--5--2-| 
D|-6--5--3---6--5--3---6--5--3--0-|  
		  

See also:

tabs Deep Purple - Deep Purple - Smoke On The Water tabs Albert Hammond Jr - Miss Myrtle tabs Deep Purple - The Unwritten Law tabs Deep Purple - Pictures of Home tabs Deep Purple - Space Truckin tabs Deep Purple - Rat Bat Blues
e-chords

Other versions:

tabs Sodom - Axis Of Evil
auto scroll beats size up size down change color hide chords drawings
tab show chords e-chords YouTube Clip e-chords hide all tabs e-chords go to top tab

share with facebook