Slipknot

Disasterpiece (ver. 2)

Slipknot

tabs

by  METALEIRO_22

save to print version add songbook text version e-mail correct tuner
chordsukulelecavacokeyboardtabbassdrumsharmonicaflute Guitar Pro
close

there isn't a video lesson for this song

chords

Disasterpiece (ver. 2)

	  		Afinação(B,F#,B,E,G#,C#) 
 
 
 
C#|----------------------------------|  
G#|----------------------------------|  
E |----------------------------------|  
B |-------------------14-------------|  
F#|----------------------------------|  
B |-13-12-12-12-12-12----13-12-12-12-|  
 
C#|------------------------|---------|  
G#|------------------------|---------|  
E |------------------------|---------|  
B |-x-x-0-x-x-1b-x-x-0-x-x-|-1h4p3p1-|  
F#|-x-x-0-x-x----x-x-0-x-x-|-1h4p3p1-|  
B |-x-x-0-x-x----x-x-0-x-x-|-1h4p3p1-|  
 
C#|---------------------------|  
G#|---------------------------|  
E |---------------------------|  
B |-x-x-0-x-x-1-x-x-0-1h4p3p1-|  
F#|-x-x-0-x-x-1-x-x-0-1h4p3p1-|  
B |-x-x-0-x-x-1-x-x-0-1h4p3p1-|  
 
C#|-------------------------------------------------------------------------|  
G#|-------------------------------------------------------------------------|  
E |-------------------------------------------------------------------------|  
B |-------------------------------------------------------------------------|  
F#|-------------------------------------------------------------------------|  
B |-0-0-0-1-1-1-0--2-1-0--2-1-0-0--2-1-0-2-1-0h1-2-1-0-2-1-0-0--2-1-0-2-1-0-|  
 
C#|---------------------------------|  
G#|---------------------------------| 
E |---------------------------------|  
B |-0-0-0-0-1-1-1-1-0-0-0-0-1h4p3p1-|  
F#|-0-0-0-0-1-1-1-1-0-0-0-0-1h4p3p1-|  
B |-0-0-0-0-1-1-1-1-0-0-0-0-1h4p3p1-|  
 
C#|---------------------------------------------|  
G#|---------------------------------------------|  
E |---------------------------------------------|  
B |-8-8-8-8-8-8-8-8-9-9-9-9-9-9-9-9-------------|  
F#|---------------------------------------------|  
B |---------------------------------0-0-1-1-0---|  
 
C#|------------------------------|  
G#|-6-5-5-6-5-5-5--6-5-5-6-5-5-5-|  
E |------------------------------|  
B |------------------------------|  
F#|------------------------------|  
B |------------------------------|  
 
C#|--------|  
G#|--------|  
E |--------|  
B |-0------|  
F#|-0------|  
B |-0------|  
 
C#|-------------------|  
G#|---------------12b-|  
E |-------------------|  
B |-----------999-----|  
F#|-------------------|  
B |-0-3-5-0-7---------|  
 
C#|-------------------|  
G#|---------------12b-|  
E |-------------------|  
B |-0-3-5-0-7-8-9-----|  
F#|-0-3-5-0-7-8-9-----|  
B |-0-3-5-0-7-8-9-----|  
  
 
 
 

		  

See also:

tabs Dream Theater - Silent Man tabs Rainbow - All Night Long tabs Slipknot - Before I Forget tabs Rainbow - Man On A Silver Mountain tabs Marilyn Manson - Coma White tabs Dream Theater - Through her eyes
e-chords

Other versions:

tabs Slipknot - Disasterpiece tabs Stone Soul - Disasterpiece tabs Slipknot - Disasterpiece (ver. 2)
auto scroll beats size up size down change color hide chords drawings
tab show chords e-chords YouTube Clip e-chords hide all tabs e-chords go to top tab

share