Sleeping With Sirens

home > Sleeping With Sire...

If You Can't Hang Tab

Sleeping With Sirens

Difficulty: ExpertExpert

by joaoewerton

tuner correct add songbook print version text version save to e-mail
chordsukulelecavacokeyboardtabbassdrumsharmonicsflute Guitar Pro
chords

If You Can't Hang

  		
INTRO/CHORUS 
e|---------------------------------------------------------------------------| 
B|----------------------------------------7-7-9-9-11-11-9-9-12-12-11-11-11---| 
G|10h11h10----------11h13h13-8/10---------8-8-8-8--8--8-8-8--8--8--8--8--8---| 
D|--------11h13h11-----------------X2!!--------------------------------------| 
A|---------------------------------------------------------------------------| 
D|---------------------------------------------------------------------------| 
Play Twice. 


0:30 
e|---------------------------------------------------------------------------| 
B|-/7--------/11--------\4--------/9~-------/b7--------/11--------\4------/b9| 
G|---------------------------------------------------------------------------| 
D|---------------------------------------------------------------------------| 
A|---------------------------------------------------------------------------| 
D|---------------------------------------------------------------------------| 

PRDCHORUS 
0:49 
e|13---13---13----16---16---16----11---11---11----13---13---13---------------| 
B|--14---14---14----14---14---14----14---14---14----14---14---14-------------| 
G|----15---15---------15---15---------15---15---------15---15----------------| 
D|---------------------------------------------------------------------------| 
A|---------------------------------------------------------------------------| 
D|---------------------------------------------------------------------------| 
(Play twice but stop at the end of the 16,14) 

1:09 
e|-99999999-------1111111111111111-------------------------------------------| 
B|-xxxxxxxx--------x-x-x-x-x-x-x-x-------------------------------------------| 
G|-88888888--------8-8-8-8-8-8-8-8-------------------------------------------| 
D|---------------------------------------------------------------------------| 
A|---------------------------------------------------------------------------| 
D|---------------------------------------------------------------------------| 

CHORUS 
1:13 
e|---------------------------------------------------------------------------| 
B|----------------------------------------7-7-9-9-11-11-9-9-12-12-11-11-11---| 
G|10h11h10----------11h13h13-8/10---------8-8-8-8--8--8-8-8--8--8--8--8--8---| 
D|--------11h13h11-----------------X2!!--------------------------------------| 
A|---------------------------------------------------------------------------| 
D|---------------------------------------------------------------------------| 
(Play twice.) 

1:33 
e|---------------------------------------------------------------------------| 
B|---------------------------------------------------------------------------| 
G|---------------------------------------------------------------------------| 
D|-9-9-9--9-9-9-9----11-11-11--11-11-11-11-----------------------------------| 
A|-9-9-9--9-9-9-9----11-11-11--11-11-11-11-----------------------------------| 
D|-9-9-9--9-9-9-9----11-11-11--11-11-11-11-----------------------------------| 

1:39 
e|-/14---------/14----------/14----------------------------------------------| 
B|----18-14-------18-14h16-----18-14------/14h16 14h16-----------------------| 
G|---------15\----------------------15\--------------------------------------| 
D|---------------------------------------------------------------------------| 
A|---------------------------------------------------------------------------| 
D|---------------------------------------------------------------------------| 
(Play this or play the next one after) 

1:49 
e|---------------------------------------------------------------------------| 
B|---------------------------------------------------------------------------| 
G|--1515151515151515-1313131313131313-1111111111111111-1010101010101010------| 
D|---x-x-x-x-x-x-x-x--x-x-x-x-x-x-x-x--x-x-x-x-x-x-x-x--x-x-x-x-x-x-x-x------| 
A|--1313131313131313-1111111111111111--9-9-9-9-9-9-9-9--8-8-8-8-8-8-8-8------| 
D|---------------------------------------------------------------------------| 

1:59 
e|13---13---13----16---16---16----11---11---11----13---13---13---------------| 
B|--14---14---14----14---14---14----14---14---14----14---14---14-------------| 
G|----15---15---------15---15---------15---15---------15---15----------------| 
D|---------------------------------------------------------------------------| 
A|---------------------------------------------------------------------------| 
D|---------------------------------------------------------------------------| 
(stop the the 16/14.. again) 

2:20 
e|-99999999-------1111111111111111-------------------------------------------| 
B|-xxxxxxxx--------x-x-x-x-x-x-x-x-------------------------------------------| 
G|-88888888--------8-8-8-8-8-8-8-8-------------------------------------------| 
D|---------------------------------------------------------------------------| 
A|---------------------------------------------------------------------------| 
D|---------------------------------------------------------------------------| 

2:25 
e|---------------------------------------------------------------------------| 
B|----------------------------------------7-7-9-9-11-11-9-9-12-12-11-11-11---| 
G|10h11h10----------11h13h13-8/10---------8-8-8-8--8--8-8-8--8--8--8--8--8---| 
D|--------11h13h11-----------------X2!!--------------------------------------| 
A|---------------------------------------------------------------------------| 
D|---------------------------------------------------------------------------| 
(twice) 

2:45 
e|---------------------------------------------------------------------------| 
B|---------------------------------------------------------------------------| 
G|---------------------------------------------------------------------------| 
D|-1-1-1--9-9-9--6-6-6----1-1-1--9-9-9--6-6-6--------------------------------| 
A|-1-1-1--9-9-9--6-6-6----1-1-1--9-9-9--6-6-6--------------------------------| 
D|-1-1-1--9-9-9--6-6-6----1-1-1--9-9-9--6-6-6--------------------------------| 

3:05 
e|---------------------------------------------------------------------------| 
B|-/7--------/11--------\4--------/9~-------/9--------/11-------\7~----------| 
G|---------------------------------------------------------------------------| 
D|---------------------------------------------------------------------------| 
A|---------------------------------------------------------------------------| 
D|---------------------------------------------------------------------------| 

3:18 
e|13---13---13----16---16---16----11---11---11----13---13---13---------------| 
B|--14---14---14----14---14---14----14---14---14----14---14---14-------------| 
G|----15---15---------15---15---------15---15---------15---15----------------| 
D|---------------------------------------------------------------------------| 
A|---------------------------------------------------------------------------| 
D|---------------------------------------------------------------------------| 
(play twice.) 

3:37 
e|---------------------------------------------------------------------------| 
B|----------------------------------------7-7-9-9-11-11-9-9-12-12-11-11-11---| 
G|10h11h10----------11h13h13-8/10---------8-8-8-8--8--8-8-8--8--8--8--8--8---| 
D|--------11h13h11-----------------X2!!--------------------------------------| 
A|---------------------------------------------------------------------------| 
D|---------------------------------------------------------------------------| 
(i am way too lazy to check how many times this is repeated, but continue on.) 

 
	  

Search Paypal
auto scroll beats size up size down change color hide chords drawings
tab show chords e-chords YouTube Clip e-chords hide all tabs e-chords go to top tab