Sleaford Mods

Shit Streets Runny

Sleaford Mods

tabs

by  JOAOEWERTON

save to print version add songbook text version e-mail correct tuner
chordsukulelecavacokeyboardtabbassdrumsharmonicaflute Guitar Pro
close

there isn't a video lesson for this song

chords

Shit Streets Runny

	  		Intro 

G|--------------------------------------| 
D|-----5------------------5-------------| 
A|--7-----------5----5/7-----------5----| 
E|-------7----7---7---------7----7---7--| 

G|--------------------------------------| 
D|-----5------------------5-------------| 
A|5/7-----------5----5/7-----------5----| 
E|-------7----7---7---------7----7---7--| 

G|--------------------------------------| 
D|-----5------------------5-------------| 
A|5/7-----------5----5/7-----------5----| 
E|-------7----7---7---------7----7---7--| 

G|--------------------------------------| 
D|-----5------------------5-------------| 
A|5/7-----------5----5/7-----7-----5----| 
E|-------7----7---7--------------7------| 

G|--------------------------------------| 
D|-----5------------------5-------------| 
A|5/7-----------5----5/7-----------5----| 
E|-------7----7---7---------7----7---7--| 

G|--------------------------------------| 
D|-----5------------------5-------------| 
A|5/7-----------5----5/7-----------5----| 
E|-------7----7---7---------7----7---7--| 

verse 1 

G|--------------------------------------| 
D|-----5------------------5-------------| 
A|5/7-----------5----5/7-----------5----| 
E|-------7----7---7---------7----7---7--| 

G|--------------------------------------| 
D|-----5------------------5-------------| 
A|5/7-----------5----5/7-----7-----5----| 
E|-------7----7---7--------------7------| 

G|--------------------------------------| 
D|-----5------------------5-------------| 
A|5/7-----------5----5/7-----------5----| 
E|-------7----7---7---------7----7---7--| 

G|--------------------------------------| 
D|-----5------------------5-------------| 
A|5/7-----------5----5/7-----------5----| 
E|-------7----7---7---------7----7---7--| 

G|--------------------------------------| 
D|-----5------------------5-------------| 
A|5/7-----------5----5/7-----------5----| 
E|-------7----7---7---------7----7---7--| 

G|--------------------------------------| 
D|-----5------------------5-------------| 
A|5/7-----------5----5/7-----7-----5----| 
E|-------7----7---7--------------7------| 

G|--------------------------------------| 
D|-----5------------------5-------------| 
A|5/7-----------5----5/7-----------5----| 
E|-------7----7---7---------7----7---7--| 

G|--------------------------------------| 
D|-----5------------------5-------------| 
A|5/7-----------5----5/7-----------5----| 
E|-------7----7---7---------7----7---7--| 

G|--------------------------------------| 
D|-----5------------------5-------------| 
A|5/7-----------5----5/7-----------5----| 
E|-------7----7---7---------7----7---7--| 

G|--------------------------------------| 
D|-----5------------------5-------------| 
A|5/7-----------5----5/7-----7-----5----| 
E|-------7----7---7--------------7------| 

G|--------------------------------------| 
D|-----5------------------5-------------| 
A|5/7-----------5----5/7-----------5----| 
E|-------7----7---7---------7----7---7--| 

G|--------------------------------------| 
D|-----5------------------5-------------| 
A|5/7-----------5----5/7-----------5----| 
E|-------7----7---7---------7----7---7--| 

G|--------------------------------------| 
D|-----5------------------5-------------| 
A|5/7-----------5----5/7-----------5----| 
E|-------7----7---7---------7----7---7--| 

G|--------------------------------------| 
D|-----5------------------5-------------| 
A|5/7-----------5----5/7-----7-----5----| 
E|-------7----7---7--------------7------| 

Chorus 

G|--------------------------------------| 
D|-----5------------------5-------------| 
A|5/7-----------5----5/7-----------5----| 
E|-------7----7---7---------7----7---7--| 

G|--------------------------------------| 
D|-----5------------------5-------------| 
A|5/7-----------5----5/7-----------5----| 
E|-------7----7---7---------7----7---7--| 

G|--------------------------------------| 
D|-----5------------------5-------------| 
A|5/7-----------5----5/7-----------5----| 
E|-------7----7---7---------7----7---7--| 

G|--------------------------------------| 
D|-----5------------------5-------------| 
A|5/7-----------5----5/7-----7-----5----| 
E|-------7----7---7--------------7------| 

verse 2 

G|--------------------------------------| 
D|-----5------------------5-------------| 
A|5/7-----------5----5/7-----------5----| 
E|-------7----7---7---------7----7---7--| 

G|--------------------------------------| 
D|-----5------------------5-------------| 
A|5/7-----------5----5/7-----------5----| 
E|-------7----7---7---------7----7---7--| 

G|--------------------------------------| 
D|-----5------------------5-------------| 
A|5/7-----------5----5/7-----------5----| 
E|-------7----7---7---------7----7---7--| 

G|--------------------------------------| 
D|-----5------------------5-------------| 
A|5/7-----------5----5/7-----7-----5----| 
E|-------7----7---7--------------7------| 

G|--------------------------------------| 
D|-----5------------------5-------------| 
A|5/7-----------5----5/7-----------5----| 
E|-------7----7---7---------7----7---7--| 

G|--------------------------------------| 
D|-----5------------------5-------------| 
A|5/7-----------5----5/7-----------5----| 
E|-------7----7---7---------7----7---7--| 

G|--------------------------------------| 
D|-----5------------------5-------------| 
A|5/7-----------5----5/7-----------5----| 
E|-------7----7---7---------7----7---7--| 

G|--------------------------------------| 
D|-----5------------------5-------------| 
A|5/7-----------5----5/7-----7-----5----| 
E|-------7----7---7--------------7------| 

G|--------------------------------------| 
D|-----5------------------5-------------| 
A|5/7-----------5----5/7-----------5----| 
E|-------7----7---7---------7----7---7--| 

G|--------------------------------------| 
D|-----5------------------5-------------| 
A|5/7-----------5----5/7-----------5----| 
E|-------7----7---7---------7----7---7--| 

G|--------------------------------------| 
D|-----5------------------5-------------| 
A|5/7-----------5----5/7-----------5----| 
E|-------7----7---7---------7----7---7--| 

G|--------------------------------------| 
D|-----5------------------5-------------| 
A|5/7-----------5----5/7-----7-----5----| 
E|-------7----7---7--------------7------| 

G|--------------------------------------| 
D|-----5------------------5-------------| 
A|5/7-----------5----5/7-----------5----| 
E|-------7----7---7---------7----7---7--| 

G|--------------------------------------| 
D|-----5------------------5-------------| 
A|5/7-----------5----5/7-----------5----| 
E|-------7----7---7---------7----7---7--| 

G|--------------------------------------| 
D|-----5------------------5-------------| 
A|5/7-----------5----5/7-----------5----| 
E|-------7----7---7---------7----7---7--| 

G|--------------------------------------| 
D|-----5------------------5-------------| 
A|5/7-----------5----5/7-----7-----5----| 
E|-------7----7---7--------------7------| 

G|--------------------------------------| 
D|-----5------------------5-------------| 
A|5/7-----------5----5/7-----------5----| 
E|-------7----7---7---------7----7---7--| 

G|--------------------------------------| 
D|-----5------------------5-------------| 
A|5/7-----------5----5/7-----------5----| 
E|-------7----7---7---------7----7---7--| 

G|--------------------------------------| 
D|-----5------------------5-------------| 
A|5/7-----------5----5/7-----------5----| 
E|-------7----7---7---------7----7---7--| 

G|--------------------------------------| 
D|-----5------------------5-------------| 
A|5/7-----------5----5/7-----7-----5----| 
E|-------7----7---7--------------7------| 

Outro 

G|--------------------------------------| 
D|-----5------------------5-------------| 
A|5/7-----------5----5/7-----------5----| 
E|-------7----7---7---------7----7---7--| 

G|--------------------------------------| 
D|-----5------------------5-------------| 
A|5/7-----------5----5/7-----------5----| 
E|-------7----7---7---------7----7---7--| 

G|--------------------------------------| 
D|-----5------------------5-------------| 
A|5/7-----------5----5/7-----------5----| 
E|-------7----7---7---------7----7---7--| 

G|--------------------------------------| 
D|-----5------------------5-------------| 
A|5/7-----------5----5/7-----7-----5/7--| 
E|-------7----7---7--------------7------| 

****************************************** 
| / Slide-up 
****************************************** 
		  

auto scroll beats size up size down change color hide chords drawings
tab show chords e-chords YouTube Clip e-chords hide all tabs e-chords go to top tab

share