Slash

Iris Of The Storm

Slash

tabs Easy easy

by  TAMAMOREIRA

save to print version add songbook text version e-mail correct tuner
chordsukulelecavacokeyboardtabbassdrumsharmonicaflute Guitar Pro
close

there isn't a video lesson for this song

chords

Iris Of The Storm

	  		 
Eb|-7-----7-----7---6------6------6---9-------9-------9---7------7---------| 
Bb|---0-4---0-4---0---7------7------7---10------10-----10---9------8-7-5-4-| 
Gb|---------------------9------9-----------9-------9----------9------------| 
Db|------------------------------------------------------------------------|   3x 
Ab|------------------------------------------------------------------------| 
Eb|------------------------------------------------------------------------| 
 

 
Eb|-7-----7-----7---6------6------6---9-------9-------9---7------7-------------| 
Bb|---0-4---0-4---0---7------7------7---10------10-----10---9------8-7-5-4-----| 
Gb|---------------------9------9-----------9-------9----------9------------6~~-| 
Db|----------------------------------------------------------------------------| 
Ab|----------------------------------------------------------------------------| 
Eb|----------------------------------------------------------------------------| 
		  

See also:

tabs The Offspring - The Kids Aren't Alright tabs Smashing Pumpkins - Today tabs Guns N' Roses - Don't Cry tabs Blue Oyster Cult - Dont Fear The Reaper tabs 4 Non Blondes - What's Up? tabs Aerosmith - Crazy
e-chords

Other versions:

tabs Slash - Iris Of The Storm
auto scroll beats size up size down change color hide chords drawings
tab show chords e-chords YouTube Clip e-chords hide all tabs e-chords go to top tab

share