Slash

Dirty Girl

Slash

tabs

by  TERR_SCHMITZ

save to print version add songbook text version e-mail correct tuner
chordsukulelecavacokeyboardtabbassdrumsharmonicaflute Guitar Pro
close

there isn't a video lesson for this song

chords

Dirty Girl

	  		

Tuning: Standard 

e|-5----5-------------------------2-| 
B|-5b7--5b7r5-3-5---5-------------2-| 
G|--------------4b6-4-2-------------| 
D|----------------------4-1h2h3h4---| 
A|----------------------------------| 
E|----------------------------------| 

e|-5----5-------------------------2-| 
B|-5b7--5b7r5-3-5---5-2-----------2-| 
G|--------------4b6-4-3-------------| 
D|------------------------1h2h3h4---| 
A|----------------------------------| 
E|----------------------------------| 

e|-5----5---------------------------| 
B|-5b7--5b7r5-3-5---5-5---------7---| 
G|--------------4b6-4-4b5-4-5-6-6b7-| 
D|----------------------------------| 
A|----------------------------------| 
E|----------------------------------| 

Riff: 
e|----------------------------------| 
B|----------------------------------| 
G|----------------------------------| 
D|----------------------------------| 
A|-----4-----3-----2-----0-----2p0--| x3 
E|-0-2---0-2---0-2---0-2---0-2------| 
  PM------------------------------| 

e|----------------------------------| 
B|----------------------------------| 
G|-----------------4-2--------------| 
D|-----------------4-2--------------| 
A|-----4-----3-----2-0--------------| x1 
E|-0-2---0-2---0-2------------------| 
  PM-------------| 

verse 1: 
e|----------------------------------| 
B|----------------------------------| 
G|----------------------------------| 
D|----------------------------------| 
A|-----4-----3-----2-----0-----2p0--| x3 
E|-0-2---0-2---0-2---0-2---0-2------| 
  PM------------------------------| 

e|----------------------------------| 
B|----------------------------------| 
G|-----------------4-2--------------| 
D|-----------------4-2--------------| 
A|-----4-----3-----2-0--------------| x1 
E|-0-2---0-2---0-2------------------| 
  PM-------------| 

e|----------------------------------| 
B|----------------------------------| 
G|----------------------------------| 
D|-----4-----3-----2-----0-----2p0--| 
A|-0-2---0-2---0-2---0-2---0-2------| x2 
E|----------------------------------| 
  PM------------------------------| 

e|----------------------------------| 
B|----------------------------------| 
G|----------------------------------| 
D|----------------------------------| 
A|-----4-----3-----2-----0-----2p0--| x1 
E|-0-2---0-2---0-2---0-2---0-2------| 
  PM------------------------------| 

e|----------------------------------| 
B|----------------------------------| 
G|----------------------------------| 
D|----------------------------------| 
A|-----2-----3-----4\---------------| x1 
E|-0-2---0-2---0-2------------------| 

Chorus: 
e|----------------------------------| 
B|-3--------------------------------| 
G|-2--------------------------------| 
D|-0-2-----4---------4--------------| 
A|---0-2----------------------------| x1 
E|-----0-2---2-0-1-2----------------| 

e|----------------------------------| 
B|-3-----------------2--------------| 
G|-2-----------------3--------------| 
D|-0-2-----4------------------------| 
A|---0-2----------------------------| x1 
E|-----0-2---2-0-1-2----------------| 

e|----------------------------------| 
B|-3--------------------------------| 
G|-2--------------------------------| 
D|-0-2-----4---------4--------------| 
A|---0-2----------------------------| x1 
E|-----0-2---2-0-1-2----------------| 

e|----------------------------------| 
B|-3--------------------------------| 
G|-2-----------------3--------------| 
D|-0-2-----6------------------------| 
A|---0-4---------0-1----------------| x1 
E|-----2-4---2-4--------------------| 

verse 2: 
e|----------------------------------| 
B|----------------------------------| 
G|----------------------------------| 
D|----------------------------------| 
A|-----4-----3-----2-----0-----2p0--| x3 
E|-0-2---0-2---0-2---0-2---0-2------| 
  PM------------------------------| 

e|-----------2----------------------| 
B|---------2---5p2------------------| 
G|-----4b6---------4b6r4-2-4-2------| 
D|----------------------------------| 
A|-4\-------------------------------| x2 
E|-2\-------------------------------| 
   
e|----------------------------------| 
B|----------------------------------| 
G|----------------------------------| 
D|-----4-----3-----2-----0-----2p0--| 
A|-0-2---0-2---0-2---0-2---0-2------| x2 
E|----------------------------------| 
  PM------------------------------| 

e|----------------------------------| 
B|----------------------------------| 
G|----------------------------------| 
D|----------------------------------| 
A|-----4-----3-----2-----0-----2p0--| x1 
E|-0-2---0-2---0-2---0-2---0-2------| 
  PM------------------------------| 

e|----------------------------------| 
B|----------------------------------| 
G|----------------------------------| 
D|-----------------4-4-4p2----------| 
A|-----2-----3-------------4--------| x1 
E|-0-2---0-2---0-2-----------2------| 

Pre-Solo: 
e|---------------------------------------------------------| 
B|---------------------------------------------------------| 
G|---------------------------------------------------------| 
D|-4-4-6-4-6-6-7-7-8-8-10-10-8-8-10-10-8-8-10-10-8-8-10-10-| 
A|-2-2-2-2-4-4-5-5-6-6-6--6--6-6-6--6--6-6-6--6--6-6-6--6--| 
E|---------------------------------------------------------| 

Solo: 
On its way! Solo rhythm is Eb5, F5, Gb5, Ab5. 

Post-Solo: 
e|-----------------------------------| 
B|-7-9--11-13------------------------| 
G|-8-10-11-13------------------------| 
D|-----------------------------------| 
A|-6-8--9--11------------------------| x3 
E|-----------------------------------| 

e|-----------------------------------------| 
B|-7-9--11---------------------------------| 
G|-8-10-11---------------------------------| 
D|-----------------------------------------| 
A|-6-8--9--6-6-8-8-8-8-8-8-8-8-9-9-9-9-11\-| x3 
E|---------4-4-6-6-6-6-6-6-6-6-7-7-7-7-9\--| 

Noodle in Ebm pentatonic if you'd rather. 

Final Chorus Overdub: 
e|-14----14-------------------------------------14--| 
B|-17b19-17b19r17-15-14-----------------------------| 
G|-------------------16b18-16-15--------------------| 
D|-------------------------------16-13-14-15-16-----| 
A|--------------------------------------------------| 
E|--------------------------------------------------| 

e|-14----14-------------------------------------14--| 
B|-17b19-17b19r17-15-14-------14--------------------| 
G|-------------------16b18----15--------------------| 
D|-------------------------16----16-13-14-15-16-----| 
A|--------------------------------------------------| 
E|--------------------------------------------------| 

e|-14----14-------------------------------------14--| 
B|-17b19-17b19r17-15-14-----------------------------| 
G|-------------------16b18-16-15--------------------| 
D|-------------------------------16-13-14-15-16-----| 
A|--------------------------------------------------| 
E|--------------------------------------------------| 


e|-14----14-----------------------------------------| 
B|-17b19-17b19r17-15-14----------14-----------------| 
G|-------------------16b18-------15-----------------| 
D|-------------------------14/16--------------------| 
A|--------------------------------------------------| 
E|--------------------------------------------------| 

Structure: 
Intro 
Riff 
verse 1 
Chorus 
verse 2 
Chorus 
Pre-Solo 
Solo 
Post-Solo 
Chorus (Final Chorus Overdub) 

************************************ 

| /   slide up 
| \   slide down 
| h   hammer-on 
| p   pull-off 
| ~   vibrato 
| +   harmonic 
| x   Mute note 
| b   Bend 
| pb  Pre-bend 
| br  Bend release 
| pbr Pre-bend release 
| brb Bend release bend 

************************************ 
		  

Full key step upFull key step up
Half key step upHalf key step up
Half key step downHalf key step down
Full key step downFull key step down
auto scroll beats size up size down change color hide chords drawings
tab show chords e-chords YouTube Clip e-chords hide all tabs e-chords go to top tab

share