Skrillex

Where Are Now Fingerstyle

Skrillex

tabs

by  LUCICAMARGO

save to print version add songbook text version e-mail correct tuner
chordsukulelecavacokeyboardtabbassdrumsharmonicaflute Guitar Pro
close

there isn't a video lesson for this song

chords

Where Are Now Fingerstyle

	  		 

INTRO 
                      this ones really fast 
E|--3--5--3--     --3--5--5--5--5--5--5--5--3--| 
B|-----------     -----------------------------| 
G|----------- (x4)-----------------------------| 
D|-----------     -----------------------------| 
A|-----------     -----------------------------| 
E|-----------     -----------------------------| 
                     c'mon dude play it fast    fast again go go go 
E|--3--5--3--     --3--5--5--5--5--5--5--5--3--5--5--5--5--5--5--5--3----3--5--3--5/7--5--3--| 
B|-----------     ---------------------------------------------------------------------------| 
G|----------- (x4)---------------------------------------------------------------------------| 
D|-----------     ---------------------------------------------------------------------------| 
A|-----------     ---------------------------------------------------------------------------| 
E|-----------     ---------------------------------------------------------------------------| 

VERSE 

 I gave you the key...                           See i gave you faith... 
E|-----------------------------------------------|--------0-----0-------------------------------| 
B|--3--3--3--3--3--------------------------------|--0--3-----3-----3--0--3--0-------------------| 
G|-----------------2--0--2--2--0--2/4--4h5p4\2---|-----------------------------0--2/4--4h5p4\2--| 
D|-----------------------------------------------|----------------------------------------------| 
A|-----------------------------------------------|----------------------------------------------| 
E|-----------------------------------------------|----------------------------------------------| 

 Now I'm all alone...                            Where are you now... 
E|--------0-----0-----0--2--0--------------------|----------------------------------------------| 
B|--0--3-----3-----3-----------3--0-----3--1--0--|----------------------------------------------| 
G|-----------------------------------0-----------|--0--2--4--4--2--0--2--4--4--4--4--4--4\0--0--| 
D|-----------------------------------------------|-------------------------------------------0--| 
A|-----------------------------------------------|----------------------------------------------| 
E|-----------------------------------------------|----------------------------------------------| 

 Where are you now...                            When you broke down... 
E|-----------------------------------------------|-----------0--0--0-----2-------------3--------| 
B|-----------3/5--0-----------3--3--3--1--3--0---|--0--1--3-----------3-----3/5--3--3-----3--3--| 
G|--0--2--4----------0--2--4---------------------|----------------------------------------------| 
D|-----------------------------------------------|----------------------------------------------| 
A|-----------------------------------------------|----------------------------------------------| 
E|-----------------------------------------------|----------------------------------------------| 

 where are you now... 
E|---------------------------------------------------| 
B|---------------------------------------------------| 
G|--0--2--4--4--2--0--2--4---0--2--4--4--2--0--4--0--| 
D|---------------------------------------------------| 
A|---------------------------------------------------| 
E|---------------------------------------------------| 

Instrumental 
if you're in an acoustic guitar try adding some percussion,otherwise this would sound  
like shit) 
E|---------------     ----------------| 
B|--8--10/12\10--     --10--8--12--8--| 
G|--------------- (x3)----------------| 
D|---------------     ----------------| 
A|---------------     ----------------| 
E|---------------     ----------------| 

I will continue the next part 
		  

auto scroll beats size up size down change color hide chords drawings
tab show chords e-chords YouTube Clip e-chords hide all tabs e-chords go to top tab