Skid Row

Youth Gone Wild (solo)

Skid Row

tabs Expert expert

save to print version add songbook text version e-mail correct tuner
chordsukulelecavacokeyboardtabbassdrumsharmonicaflute Guitar Pro
close

there isn't a video lesson for this song

chords

Youth Gone Wild (solo)

	  		Solo: 
E-15b17~~~~~-13---13----------------------------------------| 
B---------------15--13-15p13h15p13--------------------------| 
G----------------------------------15p12h15p12--------------| 
D---------------------------------------------15vvvv--------| 
A-----------------------------------------------------------| 
E-----------------------------------------------------------| 
 
E-17p15h17--15--------------------------------------15h17---| 
B---------18--15-18--15------------------------15h18--------| 
G------------------17--14-17--14----------14h17-------------| 
D---------------------------17--15vv-15h17------------------| 
A-----------------------------------------------------------| 
E-----------------------------------------------------------| 
 
E-17b19vvvv-r17-|-----------------------------------| 
B---------------|-----------------------------------| 
G---------------|-5h7p5--5-----7p5-5-7b9r7p5h7b9vvv-| 
D---------------|------h7---5h7---7-----------------| 
A---------------|-----------------------------------| 
E---------------|-----------------------------------| 
 
E-5---------------------------------------------------------| 
B--8-6-6----------------------------------------------------| 
G-----7-7-5-5-----------------------------------------------| 
D----------7-7-5--------------------------------------------| 
A---------------8-6p5h6p5h6p5h6p5---------------------------| 
E--------------------------------6p5h6p5h6p5h6p5\-----------| 

		  

See also:

tabs Dire Straits - Brothers in Arms tabs The Shadows - Apache tabs Status Quo - Whatever you want tabs Yes - Roundabout tabs Dire Straits - Sultans of Swing tabs Queen - Bohemian Rhapsody
e-chords

Other versions:

tabs Skid Row - Youth Gone Wild (solo)
auto scroll beats size up size down change color hide chords drawings
tab show chords e-chords YouTube Clip e-chords hide all tabs e-chords go to top tab

share